Ads

Gold Saucer (Final Fantasy VII) Bass/Guitar Tab

Submitted: Apr 23, 2010 by khensel

5
Average: 5 (1 vote)
Download | Listen
Game: Final Fantasy VII
Composer(s): Nobuo Uematsu
Style: 2 or more instruments, Arrangement
Series: Final Fantasy

AutoScroll: Slow | Medium | Fast

Final Fantasy VII - Gold Saucer
Composed by Nobuo Uematsu
Tabbed by brningpyre

- Arranged for Guitar (6-string) and Bass (4-string) from piano sheet music, with some changes/fixes.
- "~" represents holding the note (optional vibrato)
- Down-tune Bass E-string to D (D A D G).
- { [A], [A], [B], [C] }
- 160 bpm

[A]
G|-----------------|-----------------|-----------------|-----------------
D|-----------------|-----------------|-----------------|-----------------
A|-----------------|-----------------|-----5---2-------|-0-2-4-2-0---4---
D|-5~~~~~~-0~~~~~~-|-2~~~~~~-3~~~~~~-|-5-----------5---|-----------------
   1 + 2 + 3 + 4 +   1 + 2 + 3 + 4 +   1 + 2 + 3 + 4 +   1 + 2 + 3 + 4 +

e|-----------------|-----------------|-----------------|-----------------
B|-----------------|---------------5-|-----------------|-----------------
G|-----------------|--4--------4-5---|-7-------7-------|-----------------
D|-----5---4---5-7-|-----5---7-------|-----5-------5---|-7-5-4-5-7-------
A|-5---------------|-----------------|-----------------|-------------7---
E|-----------------|-----------------|-----------------|-----------------
   1 + 2 + 3 + 4 +   1 + 2 + 3 + 4 +   1 + 2 + 3 + 4 +   1 + 2 + 3 + 4 +


G|-----------------|-----------------|-----------------|-----------------
D|-----------------|-----------------|-----------------|-----------------
A|-----------------|-----------------|-----2---3~~~~~~-|-----5-----------
D|-5~~~~~~-0~~~~~~-|-2~~~~~~-3~~~~~~-|-5---------------|---------5~~~~~~-
   1 + 2 + 3 + 4 +   1 + 2 + 3 + 4 +   1 + 2 + 3 + 4 +   1 + 2 + 3 + 4 +

e|-----------------|-----------------|-----------------|-----------------
B|-----------------|-----------------|---------5-------|-----------------
G|-----------------|--4----------4-5-|-7---------------|-4---------------
D|-----5---4---5-7-|-----5---7-------|-----5-------5---|---7-5-4-5~~~~~~-
A|-5---------------|-----------------|-----------------|-----------------
E|-----------------|-----------------|-----------------|-----------------
   1 + 2 + 3 + 4 +   1 + 2 + 3 + 4 +   1 + 2 + 3 + 4 +   1 + 2 + 3 + 4 +
(x2)


[B]
G|-----2-----------|-----------------|-----------------|-----------------
D|-----4-----------|-----5-----------|-----4-------2---|-----------------
A|-5---5---5-4-5-4-|-0-------4---0---|-----2-------0---|-5---0---5---4-2-
D|-----------------|-----------------|-----------------|-----------------
   1 + 2 + 3 + 4 +   1 + 2 + 3 + 4 +   1 + 2 + 3 + 4 +   1 + 2 + 3 + 4 +

e|-----------------|-----------------|-----------------|-----------------
B|-----------------|-----5-----------|-----------------|-----------------
G|-------4-----7---|-6-----------4-6-|-7---4-----------|-----------------
D|-4-5-7---7-------|---------7-------|---------7---5---|-4-----5-4-------
A|-----------------|-----------------|-----------------|-----7-------5---
E|-----------------|-----------------|-----------------|-----------------
   1 + 2 + 3 + 4 +   1 + 2 + 3 + 4 +   1 + 2 + 3 + 4 +   1 + 2 + 3 + 4 +


G|-----------------|-----------------|-----------------|-----------------
D|-----2---2-------|-----------------|-2---------------|-----------------
A|-0-----------5---|-4---2---0---4---|---------2-------|-0---0---2---4---
D|-----------------|-----------------|-----------------|-----------------
   1 + 2 + 3 + 4 +   1 + 2 + 3 + 4 +   1 + 2 + 3 + 4 +   1 + 2 + 3 + 4 +

e|-----------------|-----------------|-----------------|-----------------
B|-----------------|-----------------|-----------------|-----------------
G|-----------------|-----------------|---------4-------|-----------------
D|-----------------|-----4---5~~~~-4-|-5---7-----7-5-4-|---4-5-4---------
A|-4---5---7~~~~-5-|-7---------------|-----------------|-7-------7~~~~~~-
E|-----------------|-----------------|-----------------|-----------------
   1 + 2 + 3 + 4 +   1 + 2 + 3 + 4 +   1 + 2 + 3 + 4 +   1 + 2 + 3 + 4 +


G|-----2-----------|-----------------|-----------------|-----------------
D|-----4-----------|-----5-----------|-----4-------2---|-----------------
A|-5---5---5-4-5-4-|-0-------4---0---|-----2-------0---|-0-------0~~~~~~-
D|-----------------|-----------------|-----------------|-----6-----------
   1 + 2 + 3 + 4 +   1 + 2 + 3 + 4 +   1 + 2 + 3 + 4 +   1 + 2 + 3 + 4 +

e|-----------------|-----------------|-----------------|-----------------
B|-----------------|-----5-----------|-----------------|-----------------
G|-------4-----7---|-6-----------4-6-|-7---4-----------|---------5~~~~~~-
D|-4-5-7---7-------|---------7-------|---------7---5---|-4---6---5~~~~~~-
A|-----------------|-----------------|-----------------|-5---7---3~~~~~~-
E|-----------------|-----------------|-----------------|-----------------
   1 + 2 + 3 + 4 +   1 + 2 + 3 + 4 +   1 + 2 + 3 + 4 +   1 + 2 + 3 + 4 +


[C]
G|-----------------|-----------------|-----------------|-----------------
D|-2~~~~~~---------|-2~~~~~~~~~~-----|-2~~~~~~---------|-2-------2---4---
A|---------2~~~~~~-|-------------2~~-|---------2~~~~~~-|-----5-----------
D|-----------------|-----------------|-----------------|-----------------
   1 + 2 + 3 + 4 +   1 + 2 + 3 + 4 +   1 + 2 + 3 + 4 +   1 + 2 + 3 + 4 +

e|-----------------|-----------------|-----------------|-----------------
B|-----------------|-----------------|-----------------|-----------------
G|-----------------|-----------------|-----------------|-----------------
D|-----5---4-------|-----------------|-----5---4-------|-----------------
A|-7-----------5---|-7~~~~~~~~~~---5-|-7-----------5---|-7~~~~~~~~~~-----
E|-----------------|-----------------|-----------------|-----------------
   1 + 2 + 3 + 4 +   1 + 2 + 3 + 4 +   1 + 2 + 3 + 4 +   1 + 2 + 3 + 4 +


G|-----------------|-----------------|-----------------|-----------------
D|-5~~~~~~---------|-5~~~~~~~~~~-----|-5~~~~~~---------|-5-------5---4---
A|---------5~~~~~~-|-------------5~~-|---------5~~~~~~-|-----5-----------
D|-----------------|-----------------|-----------------|-----------------
   1 + 2 + 3 + 4 +   1 + 2 + 3 + 4 +   1 + 2 + 3 + 4 +   1 + 2 + 3 + 4 +

e|-----------------|-----------------|-----------------|-----------------
B|-----------------|-----------------|-----------------|-----------------
G|-----4-----------|-----------------|-----4-----------|-----------------
D|-5-------7---4---|-5~~~~~~~~~~---4-|-5-------7---4---|-5~~~~~~~~~~-----
A|-----------------|-----------------|-----------------|-----------------
E|-----------------|-----------------|-----------------|-----------------
   1 + 2 + 3 + 4 +   1 + 2 + 3 + 4 +   1 + 2 + 3 + 4 +   1 + 2 + 3 + 4 +


G|-----------------|-----------------|-----------------|-----------------
D|-2~~~~~~---------|-2~~~~~~~~~~-----|-2~~~~~~---------|-----------------
A|---------2~~~~~~-|-------------2~~-|---------2~~~~~~-|-----------------
D|-----------------|-----------------|-----------------|-2---0---2---4---
   1 + 2 + 3 + 4 +   1 + 2 + 3 + 4 +   1 + 2 + 3 + 4 +   1 + 2 + 3 + 4 +

e|-----------------|-----------------|-----------------|-----------------
B|-----------------|-----------------|-----------------|-----------------
G|-----------------|-----------------|-----------------|-----------------
D|-----5---4-------|-----------------|-----5---4-------|-----------------
A|-7-----------5---|-7~~~~~~~~~~---5-|-7-----------5---|-7~~~~~~~~~~-----
E|-----------------|-----------------|-----------------|-----------------
   1 + 2 + 3 + 4 +   1 + 2 + 3 + 4 +   1 + 2 + 3 + 4 +   1 + 2 + 3 + 4 +


G|-----------------|-----------------|-----------------|-----------------
D|-----------------|-----------------|-----------------|-----------------
A|-----------------|-----------------|---------0-------|-----5-----------
D|-5~~~~~~-0~~~~~~-|-5~~~~~~~~~~-0~~-|-5~~~~~~-----2---|-5-------0~~~~~~-
   1 + 2 + 3 + 4 +   1 + 2 + 3 + 4 +   1 + 2 + 3 + 4 +   1 + 2 + 3 + 4 +

e|-----------------|-----------------|-----------------|-----------------
B|-----------------|-----------------|---------------5-|-----------------
G|-----4-----------|-----------------|-----4-----4-5---|-7---------------
D|-5-------7---4---|-5~~~~~~~~~~---4-|-5-------7-------|-----5---4~~~~~~-
A|-----------------|-----------------|-----------------|-----------------
E|-----------------|-----------------|-----------------|-----------------
   1 + 2 + 3 + 4 +   1 + 2 + 3 + 4 +   1 + 2 + 3 + 4 +   1 + 2 + 3 + 4 +
Login or Register to remove this ad.