Ads

Game Over (Final Fantasy VII) Guitar Tab

Submitted: Feb 11, 2013 by Colin_spade

5
Average: 5 (4 votes)
Download | Listen
Game: Final Fantasy VII
Composer(s): Nobuo Uematsu
Style: Arrangement, Fingerstyle, Natural harmonics
Series: Final Fantasy

This song is also called Continue?

AutoScroll: Slow | Medium | Fast
Continue                                     


                                                                   Nobuo Uematsu
Track 1



     E  E  E  E  E  E  E  E     E  E  E  E  E  E  E  E   
E||--------------------------|--------------------------|
B||--------------0-----L--0--|--1-----L--1--3--------0--|
G||--2--L-----2--L-----0--L--|--------2--L--------1--L--|
D||--------2--L-----2--L-----|-----3--L--------3--L-----|
A||--0--3--------------------|--------------------------|
E||--------------3--------L--|--1-----L-----0--L--L-----|


                             ^                         ^                    
  E  E  E  E    H            Q     Q     Q    Q        H        Q     Q     
-----0--4--7s--10--------|---8----------------0----|------------7----------|
--3--L-------------------|--10----10---------------|-----------------10----|
-------------------------|---9-----L----10---------|---8--------------8----|
-------------------------|--10-----L---------------|---9-------------------|
-------------------------|---8-----L---------------|--10-------------------|
----------------0--------|--------------------8----|---7-------------------|


  ^                      ^                     ^                    
  Q    Q    Q    Q       H        Q    Q       Q    Q    Q    Q     
-------0--------------|--6--------5----3----|--1----L--------------|
--8---------7----8----|--5------------------|--1----L--------------|
--7-------------------|--6------------------|--2----2----1----2----|
--9----L--------------|--5------------------|----------------------|
--7----L--------------|--0--------L----4----|--3----L--------------|
-----------------7----|---------------------|--3----L--------------|


  ^           NH                                     
  H           H             E  E  E  E  E  E  E  E   
--0-----------L--------||---------------------0--3--|
--0--------<>12--------||---------------1--3--------|
--1-----------L--------||*-----------0--------------|
--3-----------L--------||*-----0--2-----------------|
-----------------------||---3-----------------------|
--3-----------L--------||---------------------------|


  E  E  E  E  E  E  E  E        E  E  E  E  E  E  E  E   
--8-----0------------------||------------------------0--|
-----8-----3--1------------||------------------0--1-----|
-----------------0--------*||*--------------2-----------|
--------------------2--0--*||*-----------2--------------|
---------------------------||---0--2--3-----------------|
---------------------------||---------------------------|


  E  E  E  E  E  E  E  E     
--5------------------------||
-----5-----0---------------||
--------5-----2-----------*||
-----------------2--------*||
--------------------3--2---||
---------------------------||




Duration Legend
---------------
W - whole
H - half
Q - quarter
E - 8th
S - 16th
T - 32nd
X - 64th
. - note dotted
|-n-|  - n-tuplets


Tablature Legend
----------------
L - tied note
x - dead note
g - grace note
(n) - ghost note
> - accentuded note
NH - natural harmonic
AH - artificial harmonic
TH - tapped harmonic
SH - semi harmonic
PH - pitch harmonic
h - hammer on
p - pull off
b - bend
br - bendRelease
pb - preBend
pbr - preBendRelease
brb - bendReleaseBend
\n/ - tremolo bar dip
\n - tremolo bar dive
-/n - tremolo bar Release up
/n\ - tremolo bar inverted dip
/n - tremolo bar return
-\n - tremolo bar Release down
S - shift slide
s - legato slide
/ -  slide into from below or out of upwards
\ -  slide into from above or out of downwards
~ - vibrato
W - wide vibrato
tr - trill
TP - tremolo picking
T - tapping
S - slap
P - pop
< - fade in
^ - brush up
v - brush down
Login or Register to remove this ad.

1 comment on Game Over

This is great and funny

5

This is great and funny because I arranged the same song yesterday XD