Ads

Flowers Blooming in the Church (Final Fantasy VII) Guitar Tab

Submitted: May 15, 2010 by Lost Melodies

5
Average: 5 (3 votes)
Download | Listen
Game: Final Fantasy VII
Composer(s): Nobuo Uematsu
Style: Arrangement, Fingerstyle, Natural harmonics
Series: Final Fantasy

AutoScroll: Slow | Medium | Fast
                        Flowers Blooming In The Church                          


Arranged by LostMellodies                              Nobuo Uematsu
Gtr. (Capo 2)



     E  E  E  E  E  E     E  E  E  E  E  E     E  E  E  E  E  E   
E||--------------------|--------------------|--------------------|
B||--------------------|--------------------|--------------------|
G||--------0--------0--|--------0--------0--|--------0--------0--|
D||-----2--------2-----|-----2--------2-----|-----2--------2-----|
A||--5--------5--------|--5--------5--------|--5--------5--------|
E||--3-----------------|--L-----------------|--3-----------------|


  E  E  E  E  E  E       E  E  E  E  E  E     E  E  E  E  E  E   
--------------------||---------3-----------|--------------------|
--------------------||---0--3--------------|--------------------|
--------0--------0--||*--------0--------0--|--------0--------0--|
-----2--------2-----||*-----2--------2-----|-----2--------2-----|
--5--------5--------||---------------------|--------------------|
--L-----------------||---3--------3--------|--3--------3--------|


  E  E  E  E  E  E     E  E  E  E  E  E     E  E  E  E  E  E   
--1-----------------|--------------------|-----------3-----2--|
-----3--------------|--------------------|-----0--3-----------|
--------2--------2--|--------2--------2--|--------0--------0--|
-----2--3-----3-----|-----3--------3-----|-----2--------2-----|
--------------------|--------------------|--------------------|
--1--------1--------|--1--------1--------|--3--------3--------|


  E  E  E  E  E  E     E  E  E  E  E  E     E  E  E  E  E  E     
--5-----3-----0--2--|--------------------|---------------------||
--------------------|--3-----------------|---------------------||
--------0--------0--|--------2--2-----2--|--L-----2--------2--*||
-----2--------2-----|-----0--------3-----|-----3--------3-----*||
--------------------|--------------------|---------------------||
--3--------3--------|--1--------1--------|--1--------1---------||


  E  E  E  E  E  E     E  E  E  E  E  E     E  E  E  E  E  E   
--3-----------------|--4--------3--------|--2-----------------|
--------------------|--------------------|--------------------|
--------1--------1--|--------1--------1--|--------2--------2--|
-----1--------1-----|-----1--------1-----|-----4--------4-----|
--------------------|--------------------|--0--------0--------|
--3--------3--------|--3--------3--------|--------------------|


  E  E  E  E  E  E     E  E  E  E  E  E     E  E  E  E  E  E   
--------------------|--------------------|--------------------|
--------------------|--------------------|--------------------|
--------2--------2--|--------0--------0--|--------0--------0--|
-----4--------4-----|-----2--------2-----|-----2--------2-----|
--0--------0--------|--5--------5--------|--5--------5--------|
--------------------|--3-----------------|--L-----------------|


  E  E  E  E  E  E     E  E  E  E  E  E     E  E  E  E  E  E   
--------------------|--------------------|--------------------|
--------------------|--------------------|--0-----------------|
--------0--------0--|--------0-----0--2--|--------------------|
-----2--------2-----|-----2-----0--2--5--|--------4--------4--|
--5--------5--------|--5-----------------|-----7--------7-----|
--3-----------------|--L-----------------|--3--------3--------|


  E  E  E  E  E  E     E  E  E  E  E  E     E  E  E  E  E  E   
--------------------|--------------------|-----------------2--|
--------------------|--3-----------------|--------------5-----|
--------------4--5--|--------2--------2--|--------2--------2--|
--------4--------4--|-----2--------2-----|-----2--------2-----|
-----7--------7-----|--------------------|--------------------|
--3--------3--------|--2--------2--------|--2--------2--------|


  E  E  E  E  E  E     E  E  E  E  E  E     E  E  E  E  E  E   
--3-----------------|--0-----------L-----|-----0--------------|
--------------------|-----------------1--|--3-----3-----------|
--------0--------0--|--------0--------0--|--------0--------0--|
-----2--------2-----|-----2--------2-----|-----0--------0-----|
--------------------|--------------------|--------------------|
--3--------3--------|--3--------3--------|--3--------3--------|


  E  E  E  E  E  E     E  E  E  E  E  E     E  E  E  E  E  E   
--------------------|--------------------|--------------------|
-----------3-----0--|--------------------|-----------3--------|
--------0--------0--|--------------------|-----------------4--|
-----0--------0-----|--4-----4--------4--|--------4--------4--|
--------------------|-----2--------2-----|-----2--------2-----|
--3--------3--------|--2--------2--------|--2--------2--------|


  E  E  E  E  E  E     E  E  E  E  E  E     E  E  E  E  E  E   
--------------------|--------------------|--------------------|
--------------------|-----------3-----0--|--------------------|
--0-----0--------0--|--------0--------0--|--------------------|
-----2--------2-----|-----2--------2-----|--4-----4--------4--|
--------------------|--------------------|-----2--------2-----|
--3--------3--------|--3--------3--------|--2--------2--------|


  E  E  E  E  E  E     E  E  E  E  E  E     E  E  E  E  E  E   
-----------------2--|--3-----------------|--------------------|
--------------5-----|--------------------|--------------------|
--------------------|--------0--------0--|--------0--------0--|
--------4--------4--|-----2--------2-----|-----2--------2-----|
-----2--------2-----|--------------------|--------------------|
--2--------2--------|--3--------3--------|--3--------3--------|


  E  E  E  E  E  E     E  E  E  E  E  E     E  E  E  E  E  E   
-----------3--------|--2--------0--------|--------------------|
--------------------|--------------------|--3-----------------|
--------0--------0--|--------0--------0--|--------0--------0--|
-----2--------2-----|-----2--------2-----|-----0--------0-----|
--------------------|--------------------|--------------------|
--3--------3--------|--3--------3--------|--3--------3--------|


  E  E  E  E  E  E       E  E  E  E  E  E     E  E  E  E  E  E   
--------------------||------------3--------|--2--------0--------|
--0-----------------||---------------------|--------------------|
--------0--------0--||*--------0--------0--|--------0--------0--|
-----0--------0-----||*-----2--------2-----|-----2--------2-----|
--------------------||---------------------|--------------------|
--3--------3--------||---3--------3--------|--3--------3--------|


  E  E  E  E  E  E     E  E  E  E  E  E       E  E  E  E  E  E   
--2-----------L--7--|--7------------------||--------------------|
--------------------|--------0--------0---||--3-----------------|
--------0--------0--|-----0--------0-----*||--------0--------0--|
-----2--------2-----|--------------------*||-----4--------4-----|
--------------------|--9--------9---------||--------------------|
--2--------2--------|---------------------||--5--------5--------|


  E  E  E  E  E  E     E  E  E  E  E  E     E  E  E  E  E  E   
--------------------|--------------------|--------------------|
--------------------|--1--0--------------|--------------------|
--2-----2--------2--|--------2--0-----0--|--------0--------0--|
-----0--------0-----|-----0--2-----2-----|-----2--------2-----|
--------------------|--------------------|--------------------|
--5--------5--------|--3--------3--------|--3--------3--------|


  E  E  E  E  E  E     E  E  E  E  E  E     E  E  E  E  E  E   
--0--------3--------|-----------------0--|--------------------|
--1--3--1--0--------|-----------1--------|--3-----L-----------|
-----4--2--0-----0--|--------0-----0--0--|--0-----0--------0--|
-----5-----2--------|-----2-----2--------|-----2--------2-----|
--0-----0-----0-----|--0--------0--------|--------------------|
--------------------|--------------------|--3--------3--------|


                                                                 ^     
  E  E  E  E  E  E     E  E  E  E  E  E     E  E  E  E  E  E     Q     
--------------------|--------------------|--------------------|--0----|
--------------------|--------------------|--------------------|--3----|
--------0--------0--|--------0--------0--|--------0--------0--|--0----|
-----2--------2-----|-----2--------2-----|-----2--------2-----|--0----|
--------------------|--------------------|--------------------|--x----|
--3--------3--------|--3--------3--------|--3--------3--------|--3----|


     NH     
     Q      
--<>12----||
----------||
-----L----||
-----L----||
----------||
----------||




Duration Legend
---------------
W - whole
H - half
Q - quarter
E - 8th
S - 16th
T - 32nd
X - 64th
. - note dotted
|-n-|  - n-tuplets


Tablature Legend
----------------
L - tied note
x - dead note
NH - natural harmonic
< - fade in
^ - brush up
v - brush down
Login or Register to remove this ad.

1 comment on Flowers Blooming in the Church

Love this =)

5

Love this =)