Ads

Electric de Chocobo (Final Fantasy VII) Bass/Guitar Tab

Submitted: Dec 18, 2012 by hashel (Last updated: Dec 19, 2012)

5
Average: 5 (2 votes)
Download | Listen
Game: Final Fantasy VII
Composer(s): Nobuo Uematsu
Style: 2 or more instruments, Transcription
Series: Final Fantasy

AutoScroll: Slow | Medium | Fast
Title: Electric De Chocobo
Artist: Nobuo Uematsu
Album: FF7 OST
Music: Nobuo Uematsu
Copyright: Squaresoft
Tabber: Hashel05
Tempo = 160


Melody

E |----|-------|-------|-------|-------|-------|-------|-------||------|
B |----|-------|-------|-------|-------|-------|-------|-------||------|
G |----|-------|-------|-------|-------|-------|-------|-------||o-----|
D |----|-------|-------|-------|-------|-------|-------|-------||o-----|
A |----|-------|-------|-------|-------|-------|-------|-------||------|
E |----|-------|-------|-------|-------|-------|-------|-------||------|


----------------|----------------------------------------------------|
----------------|--15----------12----------------15----12------------|
-----------5s---|--------------------12----------------------12------|
----------------|--------------------------14------------------------|
----------------|----------------------------------------------------|
----------------|----------------------------------------------------|


----------------------------------------------------|
--12----------------------12L---------12------------|
--------------12----------------------------14------|
----------------------------------------------------|
----------------------------------------------------|
----------------------------------------------------|


----------------------------------------------------|
----------------------------------------------------|
--12----12-14-12----------12L---------12------------|
--------------------15----------------------15------|
----------------------------------------------------|
----------------------------------------------------|


--------------------12----13L---------13------------|
-----------12-15------------------------------------|
--12----12------------------------------------------|
----------------------------------------------------|
----------------------------------------------------|
----------------------------------------------------|


----------------------------------------------------|
--15----------12----------------15----12------------|
--------------------12----------------------12------|
--------------------------14------------------------|
----------------------------------------------------|
----------------------------------------------------|


----------------------------------------------------|
--12----------------------12L---------12------------|
--------------12----------------------------14------|
----------------------------------------------------|
----------------------------------------------------|
----------------------------------------------------|


----------------------------------------------------|
----------------------------------------------------|
--12----12-14-12----------12L---------12------------|
--------------------15----------------------15------|
----------------------------------------------------|
----------------------------------------------------|


--------------------12----13L---------13------------|
-----------12-15------------------------------------|
--12----12------------------------------------------|
----------------------------------------------------|
----------------------------------------------------|
----------------------------------------------------|


----------------------------------------------------|
--17----------13----------------------13----17------|
--------------------14----------14------------------|
--------------------------16------------------------|
----------------------------------------------------|
----------------------------------------------------|


--------------15------------------------------------|
--15----------------------15L---------15----12------|
----------------------------------------------------|
----------------------------------------------------|
----------------------------------------------------|
----------------------------------------------------|


----------------------------------------------------|
--13----------------------------------------13------|
--------------14----------------------14------------|
--------------------16----12----16------------------|
----------------------------------------------------|
----------------------------------------------------|


----------------------------------------------------|
--12----12h13h12------------------------------------|
--------------------14----16L---------16------------|
----------------------------------------------------|
----------------------------------------------------|
----------------------------------------------------|


----------------------------------------------------|
--17----------13----------------------13----17------|
--------------------14----------14------------------|
--------------------------16------------------------|
----------------------------------------------------|
----------------------------------------------------|


--------------15------------------------------------|
--15----------------------15L---------15----12------|
----------------------------------------------------|
----------------------------------------------------|
----------------------------------------------------|
----------------------------------------------------|


----------------------------------------------------|
----------------------------------------------------|
--14----14h16h14----12----14L---------14----12------|
----------------------------------------------------|
----------------------------------------------------|
----------------------------------------------------|


--------------------------------------14------------|
--------------------15----17------------------------|
--14----14h16h17------------------------------------|
----------------------------------------------------|
----------------------------------------------------|
----------------------------------------------------|


----------------------------------------------------|
--15----------12----------------15----12------------|
--------------------12----------------------12------|
--------------------------14------------------------|
----------------------------------------------------|
----------------------------------------------------|


----------------------------------------------------|
--12----------------------12L---------12------------|
--------------12----------------------------14------|
----------------------------------------------------|
----------------------------------------------------|
----------------------------------------------------|


----------------------------------------------------|
----------------------------------------------------|
--12----12-14-12----------12L---------12------------|
--------------------15----------------------15------|
----------------------------------------------------|
----------------------------------------------------|


--------------------12----13L---------13------------|
-----------12-15------------------------------------|
--12----12------------------------------------------|
----------------------------------------------------|
----------------------------------------------------|
----------------------------------------------------|


----------------------------------------------------|
--15----------12----------------15----12------------|
--------------------12----------------------12------|
--------------------------14------------------------|
----------------------------------------------------|
----------------------------------------------------|


----------------------------------------------------|
--12----------------------12L---------12------------|
--------------12----------------------------14------|
----------------------------------------------------|
----------------------------------------------------|
----------------------------------------------------|


----------------------------------------------------|
----------------------------------------------------|
--12----12-14-12----------12L---------12------------|
--------------------15----------------------15------|
----------------------------------------------------|
----------------------------------------------------|


--------------------12----13L---------13------------|
-----------12-15------------------------------------|
--12----12------------------------------------------|
----------------------------------------------------|
----------------------------------------------------|
----------------------------------------------------|


----------------------------------------------------|
--17----------13----------------------13----17------|
--------------------14----------14------------------|
--------------------------16------------------------|
----------------------------------------------------|
----------------------------------------------------|


--------------15------------------------------------|
--15----------------------15L---------15----12------|
----------------------------------------------------|
----------------------------------------------------|
----------------------------------------------------|
----------------------------------------------------|


----------------------------------------------------|
--13----------------------------------------13------|
--------------14----------------------14------------|
--------------------16----12----16------------------|
----------------------------------------------------|
----------------------------------------------------|


----------------------------------------------------|
--12----12h13h12------------------------------------|
--------------------14----16L---------16------------|
----------------------------------------------------|
----------------------------------------------------|
----------------------------------------------------|


----------------------------------------------------|
--17----------13----------------------13----17------|
--------------------14----------14------------------|
--------------------------16------------------------|
----------------------------------------------------|
----------------------------------------------------|


--------------15------------------------------------|
--15----------------------15L---------15----12------|
----------------------------------------------------|
----------------------------------------------------|
----------------------------------------------------|
----------------------------------------------------|


----------------------------------------------------|
----------------------------------------------------|
--14----14h16h14----12----14L---------14----12------|
----------------------------------------------------|
----------------------------------------------------|
----------------------------------------------------|


--------------------------------------14------------|--15------------|-------|
--------------------15----17------------------------|----------------|-------|
--14----14h16h17------------------------------------|----------------|-------|
----------------------------------------------------|----------------|-------|
----------------------------------------------------|----------------|-------|
----------------------------------------------------|----------------|-------|


-------|-------|-------|-------|-------|-------|-------|-------|-------|-------|
-------|-------|-------|-------|-------|-------|-------|-------|-------|-------|
-------|-------|-------|-------|-------|-------|-------|-------|-------|-------|
-------|-------|-------|-------|-------|-------|-------|-------|-------|-------|
-------|-------|-------|-------|-------|-------|-------|-------|-------|-------|
-------|-------|-------|-------|-------|-------|-------|-------|-------|-------|


-------|-------|-------|-------|-------|-------|-------|-------|-------|-------|
-------|-------|-------|-------|-------|-------|-------|-------|-------|-------|
-------|-------|-------|-------|-------|-------|-------|-------|-------|-------|
-------|-------|-------|-------|-------|-------|-------|-------|-------|-------|
-------|-------|-------|-------|-------|-------|-------|-------|-------|-------|
-------|-------|-------|-------|-------|-------|-------|-------|-------|-------|


-------|-------|-------|-------|-------|----------------|
-------|-------|-------|-------|-------|----------------|
-------|-------|-------|-------|-------|-----------5s---|
-------|-------|-------|-------|-------|----------------|
-------|-------|-------|-------|-------|----------------|
-------|-------|-------|-------|-------|----------------|


----------------------------------------------------|
--17----------13----------------------13----17------|
--------------------14----------14------------------|
--------------------------16------------------------|
----------------------------------------------------|
----------------------------------------------------|


--------------15------------------------------------|
--15----------------------15L---------15----12------|
----------------------------------------------------|
----------------------------------------------------|
----------------------------------------------------|
----------------------------------------------------|


----------------------------------------------------|
--13----------------------------------------13------|
--------------14----------------------14------------|
--------------------16----12----16------------------|
----------------------------------------------------|
----------------------------------------------------|


----------------------------------------------------|
--12----12h13h12------------------------------------|
--------------------14----16L---------16------------|
----------------------------------------------------|
----------------------------------------------------|
----------------------------------------------------|


----------------------------------------------------|
--17----------13----------------------13----17------|
--------------------14----------14------------------|
--------------------------16------------------------|
----------------------------------------------------|
----------------------------------------------------|


--------------15------------------------------------|
--15----------------------15L---------15----12------|
----------------------------------------------------|
----------------------------------------------------|
----------------------------------------------------|
----------------------------------------------------|


----------------------------------------------------|
----------------------------------------------------|
--14----14h16h14----12----14L---------14----12------|
----------------------------------------------------|
----------------------------------------------------|
----------------------------------------------------|


--------------------------------------14------------|--15------------|------||
--------------------15----17------------------------|----------------|------||
--14----14h16h17------------------------------------|----------------|-----o||
----------------------------------------------------|----------------|-----o||
----------------------------------------------------|----------------|------||
----------------------------------------------------|----------------|------||


Rhythm

E |----|----|----|----|-------|-------|-------|-------||------|-------|
B |----|----|----|----|-------|-------|-------|-------||------|-------|
G |----|----|----|----|-------|-------|-------|-------||o-----|-------|
D |----|----|----|----|--5L---|--5~---|-------|-------||o5L---|--5~---|
A |----|----|----|----|--7L---|--7~---|-------|-------||-5L---|--5~---|
E |----|----|----|----|--7L---|--7~---|-------|-------||-6L---|--6~---|


--------3--3--------1-------|--------3--3-----1-----1----|
--------3--3--------1-------|--------3--3-----1-----1----|
--------4--4--------2-------|--------4--4-----2-----2----|
--------5--5--------3-------|--------5--5-----3-----3----|
--------5--5--------3-------|--------5--5-----3-----3----|
--------3--3--------1-------|--------3--3-----1-----1----|


--------3--3--------1-------|--------3--3-----1-----1----|
--------3--3--------1-------|--------3--3-----1-----1----|
--------4--4--------2-------|--------4--4-----2-----2----|
--------5--5--------3-------|--------5--5-----3-----3----|
--------5--5--------3-------|--------5--5-----3-----3----|
--------3--3--------1-------|--------3--3-----1-----1----|


--------3--3--------1-------|--------3--3-----1-----1----|
--------3--3--------1-------|--------3--3-----1-----1----|
--------4--4--------2-------|--------4--4-----2-----2----|
--------5--5--------3-------|--------5--5-----3-----3----|
--------5--5--------3-------|--------5--5-----3-----3----|
--------3--3--------1-------|--------3--3-----1-----1----|


--------3--3--------1-------|--------3--3-----1-----1----|
--------3--3--------1-------|--------3--3-----1-----1----|
--------4--4--------2-------|--------4--4-----2-----2----|
--------5--5--------3-------|--------5--5-----3-----3----|
--------5--5--------3-------|--------5--5-----3-----3----|
--------3--3--------1-------|--------3--3-----1-----1----|


----------------------------|--3--3----------------------|
--5-----5-----7--7-----7----|--3--3-----3-----3--3--3----|
--5-----5-----7--7-----7----|--4--4-----4-----4--4--4----|
--5-----5-----7--7-----7----|--5--5-----3-----3--3--3----|
--3-----3-----5--5-----5----|--5--5-----5-----5--5--5----|
----------------------------|--3--3-----3-----3--3--3----|


----------------------------|--3--3----------------------|
--5-----5-----7--7-----7----|--3--3-----3-----3--3--3----|
--5-----5-----7--7-----7----|--4--4-----4-----4--4--4----|
--5-----5-----7--7-----7----|--5--5-----3-----3--3--3----|
--3-----3-----5--5-----5----|--5--5-----5-----5--5--5----|
----------------------------|--3--3-----3-----3--3--3----|


----------------------------|--3--3----------------------|
--5-----5-----7--7-----7----|--3--3-----3-----3--3--3----|
--5-----5-----7--7-----7----|--4--4-----4-----4--4--4----|
--5-----5-----7--7-----7----|--5--5-----3-----3--3--3----|
--3-----3-----5--5-----5----|--5--5-----5-----5--5--5----|
----------------------------|--3--3-----3-----3--3--3----|


--------1--1--------1-------|----------------------------|
--------1--1--------1-------|--------7--7--------7-------|
--------2--2--------2-------|--------7--7--------7-------|
--------3--3--------3-------|--------7--7--------7-------|
--------3--3--------3-------|--------5--5--------5-------|
--------1--1--------1-------|----------------------------|


--------3--3--------1-------|--------3--3-----1-----1----|
--------3--3--------1-------|--------3--3-----1-----1----|
--------4--4--------2-------|--------4--4-----2-----2----|
--------5--5--------3-------|--------5--5-----3-----3----|
--------5--5--------3-------|--------5--5-----3-----3----|
--------3--3--------1-------|--------3--3-----1-----1----|


--------3--3--------1-------|--------3--3-----1-----1----|
--------3--3--------1-------|--------3--3-----1-----1----|
--------4--4--------2-------|--------4--4-----2-----2----|
--------5--5--------3-------|--------5--5-----3-----3----|
--------5--5--------3-------|--------5--5-----3-----3----|
--------3--3--------1-------|--------3--3-----1-----1----|


--------3--3--------1-------|--------3--3-----1-----1----|
--------3--3--------1-------|--------3--3-----1-----1----|
--------4--4--------2-------|--------4--4-----2-----2----|
--------5--5--------3-------|--------5--5-----3-----3----|
--------5--5--------3-------|--------5--5-----3-----3----|
--------3--3--------1-------|--------3--3-----1-----1----|


--------3--3--------1-------|--------3--3-----1-----1----|
--------3--3--------1-------|--------3--3-----1-----1----|
--------4--4--------2-------|--------4--4-----2-----2----|
--------5--5--------3-------|--------5--5-----3-----3----|
--------5--5--------3-------|--------5--5-----3-----3----|
--------3--3--------1-------|--------3--3-----1-----1----|


----------------------------|--3--3----------------------|
--5-----5-----7--7-----7----|--3--3-----3-----3--3--3----|
--5-----5-----7--7-----7----|--4--4-----4-----4--4--4----|
--5-----5-----7--7-----7----|--5--5-----3-----3--3--3----|
--3-----3-----5--5-----5----|--5--5-----5-----5--5--5----|
----------------------------|--3--3-----3-----3--3--3----|


----------------------------|--3--3----------------------|
--5-----5-----7--7-----7----|--3--3-----3-----3--3--3----|
--5-----5-----7--7-----7----|--4--4-----4-----4--4--4----|
--5-----5-----7--7-----7----|--5--5-----3-----3--3--3----|
--3-----3-----5--5-----5----|--5--5-----5-----5--5--5----|
----------------------------|--3--3-----3-----3--3--3----|


----------------------------|--3--3----------------------|
--5-----5-----7--7-----7----|--3--3-----3-----3--3--3----|
--5-----5-----7--7-----7----|--4--4-----4-----4--4--4----|
--5-----5-----7--7-----7----|--5--5-----3-----3--3--3----|
--3-----3-----5--5-----5----|--5--5-----5-----5--5--5----|
----------------------------|--3--3-----3-----3--3--3----|


--------1--1--------1-------|----------------------------|----|----|-------|
--------1--1--------1-------|--------7--7--------7-------|----|----|-------|
--------2--2--------2-------|--------7--7--------7-------|----|----|-------|
--------3--3--------3-------|--------7--7--------7-------|----|----|--5L---|
--------3--3--------3-------|--------5--5--------5-------|----|----|--5L---|
--------1--1--------1-------|----------------------------|----|----|--6L---|


-------|----|----|----|----|----|----|----|----|----|----|----|----|----|----|
-------|----|----|----|----|----|----|----|----|----|----|----|----|----|----|
-------|----|----|----|----|----|----|----|----|----|----|----|----|----|----|
--5~---|----|----|----|----|----|----|----|----|----|----|----|----|----|----|
--5~---|----|----|----|----|----|----|----|----|----|----|----|----|----|----|
--6~---|----|----|----|----|----|----|----|----|----|----|----|----|----|----|


----|----|----|----|----|----|----|----|----|----|----------------------------|
----|----|----|----|----|----|----|----|----|----|--5-----5-----7--7-----7----|
----|----|----|----|----|----|----|----|----|----|--5-----5-----7--7-----7----|
----|----|----|----|----|----|----|----|----|----|--5-----5-----7--7-----7----|
----|----|----|----|----|----|----|----|----|----|--3-----3-----5--5-----5----|
----|----|----|----|----|----|----|----|----|----|----------------------------|


--3--3----------------------|----------------------------|
--3--3-----3-----3--3--3----|--5-----5-----7--7-----7----|
--4--4-----4-----4--4--4----|--5-----5-----7--7-----7----|
--5--5-----3-----3--3--3----|--5-----5-----7--7-----7----|
--5--5-----5-----5--5--5----|--3-----3-----5--5-----5----|
--3--3-----3-----3--3--3----|----------------------------|


--3--3----------------------|----------------------------|
--3--3-----3-----3--3--3----|--5-----5-----7--7-----7----|
--4--4-----4-----4--4--4----|--5-----5-----7--7-----7----|
--5--5-----3-----3--3--3----|--5-----5-----7--7-----7----|
--5--5-----5-----5--5--5----|--3-----3-----5--5-----5----|
--3--3-----3-----3--3--3----|----------------------------|


--3--3----------------------|--------1--1--------1-------|
--3--3-----3-----3--3--3----|--------1--1--------1-------|
--4--4-----4-----4--4--4----|--------2--2--------2-------|
--5--5-----3-----3--3--3----|--------3--3--------3-------|
--5--5-----5-----5--5--5----|--------3--3--------3-------|
--3--3-----3-----3--3--3----|--------1--1--------1-------|


----------------------------|-------|------||----|----||
--------7--7--------7-------|-------|------||----|----||
--------7--7--------7-------|-------|-----o||----|----||
--------7--7--------7-------|-------|-----o||----|----||
--------5--5--------5-------|-------|------||----|----||
----------------------------|-------|------||----|----||


Harmony

E |----|----------------------------------------------------|
B |----|----------------------------------------------------|
G |----|----------------------------------------------------|
D |----|----------------------------------------------------|
A |----|----------------------------------------------------|
E |----|--8--8--7--7--6--6--5--5--4--4--3--3--2--2--1--1----|


----------------------------|----------------------------|
----------------------------|----------------------------|
----------------------------|----------------------------|
----------------------------|----------------------------|
-----2M----2M----2M----2M---|-----2M----2M----2M----2M---|
--0M----3M----0M----3M------|--0M----3M----0M----3M------|


----------------------------|----------------------------|
----------------------------|----------------------------|
----------------------------|----------------------------|
----------------------------|----------------------------|
-----2M----2M----2M----2M---|-----2M----2M----2M----2M---|
--0M----3M----0M----3M------|--0M----3M----0M----3M------|


----------------------------|----------------------------||
----------------------------|----------------------------||
----------------------------|----------------------------||
----------------------------|----------------------------||
-----5M----5M----5M----5M---|-----5M----5M----5M----5M---||
--3M----6M----3M----6M------|--3M----6M----3M----6M------||


---------------------------|----------------------------|
---------------------------|----------------------------|
o--------------------------|----------------------------|
o--------------------------|----------------------------|
----5M----5M----5M----5M---|-----5M----5M----5M----5M---|
-3M----6M----3M----6M------|--3M----6M----3M----6M------|


----------------------------|----------------------------|
----------------------------|----------------------------|
----------------------------|----------------------------|
----------------------------|----------------------------|
-----5M-2M-5M----3M-0M-3M---|-----5M-2M-5M----3M-0M-3M---|
--3M----------1M------------|--3M----------1M------------|


----------------------------|----------------------------|
----------------------------|----------------------------|
----------------------------|----------------------------|
----------------------------|----------------------------|
-----5M-2M-5M----3M-0M-3M---|-----5M-2M-5M----3M-0M-3M---|
--3M----------1M------------|--3M----------1M------------|


----------------------------|----------------------------|
----------------------------|----------------------------|
----------------------------|----------------------------|
----------------------------|----------------------------|
-----5M-2M-5M----3M-0M-3M---|-----5M-2M-5M----3M-0M-3M---|
--3M----------1M------------|--3M----------1M------------|


----------------------------|----------------------------|
----------------------------|----------------------------|
----------------------------|----------------------------|
----------------------------|----------------------------|
-----5M-2M-5M----3M-0M-3M---|-----5M-2M-5M----3M-0M-3M---|
--3M----------1M------------|--3M----------1M------------|


----------------------------|----------------------------|
----------------------------|----------------------------|
----------------------------|----------------------------|
--------2M------------------|----------------------------|
--3M-3M----3M-5M-5M-0M-5M---|--------2M----------2M------|
----------------------------|--3M-3M----2M-2M-2M----2M---|


----------------------------|----------------------------|
----------------------------|----------------------------|
----------------------------|----------------------------|
--------2M------------------|----------------------------|
--3M-3M----3M-5M-5M-0M-5M---|--------0M-0M-1M-1M-2M-2M---|
----------------------------|--3M-3M---------------------|


----------------------------|----------------------------|
----------------------------|----------------------------|
----------------------------|----------------------------|
--------2M------------------|----------------------------|
--3M-3M----3M-5M-5M-0M-5M---|--------2M----------2M------|
----------------------------|--3M-3M----2M-2M-2M----2M---|


----------------------------|----------------------------|
----------------------------|----------------------------|
----------------------------|----------------------------|
----------------------------|----------------------------|
--0M-0M-2M-0M-3M-0M-2M-0M---|--5M-5M-3M-2M-0M------------|
----------------------------|----------------------------|


----------------------------|----------------------------|
----------------------------|----------------------------|
----------------------------|----------------------------|
----------------------------|----------------------------|
-----5M-2M-5M----3M-0M-3M---|-----5M-2M-5M----3M-0M-3M---|
--3M----------1M------------|--3M----------1M------------|


----------------------------|----------------------------|
----------------------------|----------------------------|
----------------------------|----------------------------|
----------------------------|----------------------------|
-----5M-2M-5M----3M-0M-3M---|-----5M-2M-5M----3M-0M-3M---|
--3M----------1M------------|--3M----------1M------------|


----------------------------|----------------------------|
----------------------------|----------------------------|
----------------------------|----------------------------|
----------------------------|----------------------------|
-----5M-2M-5M----3M-0M-3M---|-----5M-2M-5M----3M-0M-3M---|
--3M----------1M------------|--3M----------1M------------|


----------------------------|----------------------------|
----------------------------|----------------------------|
----------------------------|----------------------------|
----------------------------|----------------------------|
-----5M-2M-5M----3M-0M-3M---|-----5M-2M-5M----3M-0M-3M---|
--3M----------1M------------|--3M----------1M------------|


----------------------------|----------------------------|
----------------------------|----------------------------|
----------------------------|----------------------------|
--------2M------------------|----------------------------|
--3M-3M----3M-5M-5M-0M-5M---|--------2M----------2M------|
----------------------------|--3M-3M----2M-2M-2M----2M---|


----------------------------|----------------------------|
----------------------------|----------------------------|
----------------------------|----------------------------|
--------2M------------------|----------------------------|
--3M-3M----3M-5M-5M-0M-5M---|--------0M-0M-1M-1M-2M-2M---|
----------------------------|--3M-3M---------------------|


----------------------------|----------------------------|
----------------------------|----------------------------|
----------------------------|----------------------------|
--------2M------------------|----------------------------|
--3M-3M----3M-5M-5M-0M-5M---|--------2M----------2M------|
----------------------------|--3M-3M----2M-2M-2M----2M---|


----------------------------|----------------------------|----|----|----|----|
----------------------------|----------------------------|----|----|----|----|
----------------------------|----------------------------|----|----|----|----|
----------------------------|----------------------------|----|----|----|----|
--0M-0M-2M-0M-3M-0M-2M-0M---|--5M-5M-3M-2M-0M------------|----|----|----|----|
----------------------------|----------------------------|----|----|----|----|


----------------------------|----------------------------|
----------------------------|----------------------------|
----------------------------|----------------------------|
----------------------------|----------------------------|
--3-----3--1--------1--2----|--3--3--1--3--------1--2----|
--------------3--3----------|-----------------3----------|


----------------------------|----------------------------|
----------------------------|----------------------------|
----------------------------|----------------------------|
----------------------------|--------------------1--2----|
--3-----3--1--------1--2----|--3--3--1--3-----3----------|
--------------3--3----------|----------------------------|


----------------------------|----------------------------|
----------------------------|----------------------------|
----------------------------|----------------------------|
--3-----3--1--------1--2----|--3--3--1--3----------------|
--------------3--3----------|--------------------1--2----|
----------------------------|-----------------3----------|


----------------------------|----------------------------|
----------------------------|----------------------------|
----------------------------|----------------------------|
----------------------------|--------------------3--4----|
--3-----3--1--------1--2----|--3--3--1--3-----5----------|
--------------3--3----------|----------------------------|


----------------------------|----------------------------|
----------------------------|----------------------------|
----------------------------|----------------------------|
--5-----5--3--------3--5----|--3--3--1--3----------------|
--------------5--5----------|--------------------1--2----|
----------------------------|-----------------3----------|


----------------------------|----------------------------|
----------------------------|----------------------------|
----------------------------|----------------------------|
----------------------------|----------------------------|
--3-----3--1--------1--2----|--3--3--1--3--------1--2----|
--------------3--3----------|-----------------3----------|


----------------------------------------------------|
----------------------------------------------------|
----------------------------------------------------|
--5-----5--5--2-----------------5-----2-------------|
--------------------3-----0-----------------3-------|
----------------------------------------------------|


----------------------------------------------------|
----------------------------------------------------|
----------------------------------------------------|
--2-----2--2--------2-----------------------0-------|
--------------3-------------------------------------|
----------------------------------------------------|


----------------------------------------------------|
----------------------------------------------------|
----------------------------------------------------|
----------------------------------------------------|
--3-----3--5--3-----1-----3-----1-----------1-------|
--------------------------------------3-------------|


----------------------------------------------------|
----------------------------------------------------|
--------------------2-----3-------------------------|
-----------2--5-------------------------------------|
--3-----3-------------------------------------------|
----------------------------------------------------|


----------------------------------------------------|
----------------------------------------------------|
--5-----5--5--2-----------------5-----2-------------|
--------------------3-----------------------3-------|
--------------------------5-------------------------|
----------------------------------------------------|


----------------------------------------------------|
----------------------------------------------------|
--2-----2--2--------2-------------------------------|
--------------3-----------------------------5-------|
----------------------------------------------------|
----------------------------------------------------|


----------------------------------------------------|
----------------------------------------------------|
----------------------------------------------------|
--2-----2h-3h-2-----0-----2-----0-----------0-------|
--------------------------------------3-------------|
----------------------------------------------------|


----------------------------------------------------|
----------------------------------------------------|
--------------------2-----3-------------------------|
--2-----2h-3h-5-------------------------------------|
----------------------------------------------------|
----------------------------------------------------|


----------------------------------------------------|
--3-----3--3--------------------3-------------------|
--------------5-----------------------4-------------|
--------------------5-----2-----------------5-------|
----------------------------------------------------|
----------------------------------------------------|


----------------------------------------------------|
----------------------------------------------------|
--------5--5--4--4--3--3--2--2--1--1--0--0----------|
--------------------------------------------4--4----|
----------------------------------------------------|
----------------------------------------------------|


----------------------------|----------------------------|
----------------------------|----------------------------|
----------------------------|----------------------------|
--2-----2--0--------0--1----|--2--2--0--2----------------|
--------------1--1----------|----------------------------|
----------------------------|----------------------------|


----------------------------|----------------------------|
----------------------------|----------------------------|
----------------------------|----------------------------|
--------2M------------------|----------------------------|
--3M-3M----3M-5M-5M-0M-5M---|--------2M----------2M------|
----------------------------|--3M-3M----2M-2M-2M----2M---|


----------------------------|----------------------------|
----------------------------|----------------------------|
----------------------------|----------------------------|
--------2M------------------|----------------------------|
--3M-3M----3M-5M-5M-0M-5M---|--------0M-0M-1M-1M-2M-2M---|
----------------------------|--3M-3M---------------------|


----------------------------|----------------------------|
----------------------------|----------------------------|
----------------------------|----------------------------|
--------2M------------------|----------------------------|
--3M-3M----3M-5M-5M-0M-5M---|--------2M----------2M------|
----------------------------|--3M-3M----2M-2M-2M----2M---|


----------------------------|----------------------------|
----------------------------|----------------------------|
----------------------------|----------------------------|
----------------------------|----------------------------|
--0M-0M-2M-0M-3M-0M-2M-0M---|--5M-5M-3M-2M-0M------------|
----------------------------|----------------------------|


----------------------------|---------------------------||----|----||
----------------------------|---------------------------||----|----||
----------------------------|--------------------------o||----|----||
----------------------------|--------------------------o||----|----||
-----5M----5M----5M----5M---|-----5M----5M----5M----5M--||----|----||
--3M----6M----3M----6M------|--3M----6M----3M----6M-----||----|----||


Bass


G |----|----------------------------------------------------|
D |----|--10-10-9--9--8--8--7--7--6--6--5--5--4--4--3--3----|
A |----|----------------------------------------------------|
E |----|----------------------------------------------------|


----------------------------|----------------------------|
-----9-----9-----9-----9----|-----9-----9-----9-----9----|
--7-----10----7-----10------|--7-----10----7-----10------|
----------------------------|----------------------------|


----------------------------|----------------------------|
-----9-----9-----9-----9----|-----9-----9-----9-----9----|
--7-----10----7-----10------|--7-----10----7-----10------|
----------------------------|----------------------------|


-----7-----7-----7-----7----|-----7-----7-----7-----7----||
--5-----8-----5-----8-------|--5-----8-----5-----8-------||
----------------------------|----------------------------||
----------------------------|----------------------------||


----7-----7-----7-----7----|-----7-----7-----7-----7----|
o5-----8-----5-----8-------|--5-----8-----5-----8-------|
o--------------------------|----------------------------|
---------------------------|----------------------------|


----------------------------|----------------------------|
--5--5--5--3-----------3----|--5--5--5--3-----------3----|
--------------5--5--5-------|--------------5--5--5-------|
----------------------------|----------------------------|


----------------------------|----------------------------|
--5--5--5--3-----------3----|--5--5--5--3-----------3----|
--------------5--5--5-------|--------------5--5--5-------|
----------------------------|----------------------------|


----------------------------|----------------------------|
--5--5--5--3-----------3----|--5--5--5--3-----------3----|
--------------5--5--5-------|--------------5--5--5-------|
----------------------------|----------------------------|


----------------------------|----------------------------|
--5--5--5--3-----------3----|--5--5--5--3-----------3----|
--------------5--5--5-------|--------------5--5--5-------|
----------------------------|----------------------------|


--5--------------------5----|--4--4--4--4--4--4--4--4----|
--------7--5--4--4--7-------|----------------------------|
----------------------------|----------------------------|
----------------------------|----------------------------|


--5-------------------------|----------------------------|
--------7--5--4--4--5--7----|--5--5--7--7--8--8--9--9----|
----------------------------|----------------------------|
----------------------------|----------------------------|


--5--------------------5----|--4--4--4--4--4--4--4--4----|
--------7--5--4--4--7-------|----------------------------|
----------------------------|----------------------------|
----------------------------|----------------------------|


--------4-----5-----4-------|--7--7--5--4----------------|
--7--7-----7-----7-----7----|--------------7-------------|
----------------------------|--------------------5-------|
----------------------------|----------------------------|


----------------------------|----------------------------|
--5--5--5--3-----------3----|--5--5--5--3-----------3----|
--------------5--5--5-------|--------------5--5--5-------|
----------------------------|----------------------------|


----------------------------|----------------------------|
--5--5--5--3-----------3----|--5--5--5--3-----------3----|
--------------5--5--5-------|--------------5--5--5-------|
----------------------------|----------------------------|


----------------------------|----------------------------|
--5--5--5--3-----------3----|--5--5--5--3-----------3----|
--------------5--5--5-------|--------------5--5--5-------|
----------------------------|----------------------------|


----------------------------|----------------------------|
--5--5--5--3-----------3----|--5--5--5--3-----------3----|
--------------5--5--5-------|--------------5--5--5-------|
----------------------------|----------------------------|


--5--------------------5----|--4--4--4--4--4--4--4--4----|
--------7--5--4--4--7-------|----------------------------|
----------------------------|----------------------------|
----------------------------|----------------------------|


--5-------------------------|----------------------------|
--------7--5--4--4--5--7----|--5--5--7--7--8--8--9--9----|
----------------------------|----------------------------|
----------------------------|----------------------------|


--5--------------------5----|--4--4--4--4--4--4--4--4----|
--------7--5--4--4--7-------|----------------------------|
----------------------------|----------------------------|
----------------------------|----------------------------|


--------4-----5-----4-------|--7--7--5--4----------------|----------------|
--7--7-----7-----7-----7----|--------------7-------------|--5-------------|
----------------------------|--------------------5-------|----------------|
----------------------------|----------------------------|----------------|


-------|-------|-----------12---|
-------|-------|----------------|
-------|-------|----------------|
-------|-------|----------------|


----------------------------------------------------|
--10----10-10-10----8-----------------8-----9-------|
--------------------------10----10------------------|
----------------------------------------------------|


----------------------------|
--10-10-8--10-------8--9----|
-----------------10---------|
----------------------------|


----------------------------------------------------|
--10----10-10-10----8-----------------8-----9-------|
--------------------------10----10------------------|
----------------------------------------------------|


--------------------8--9----|
--10-10-8--10----10---------|
----------------------------|
----------------------------|


--10----10-10-10----8-----------------8-----9-------|
--------------------------10----10------------------|
----------------------------------------------------|
----------------------------------------------------|


--10-10-8--10---------------|
--------------------8--9----|
-----------------10---------|
----------------------------|


----------------------------------------------------|
--10----10-10-10----8-----------------8-----9-------|
--------------------------10----10------------------|
----------------------------------------------------|


--------------------10-11---|
--10-10-8--10----12---------|
----------------------------|
----------------------------|


--12----12-12-12----10----------------10----12------|
--------------------------12----12------------------|
----------------------------------------------------|
----------------------------------------------------|


--10-10-8--10---------------|
--------------------8--9----|
-----------------10---------|
----------------------------|


----------------------------------------------------|
--10----10-10-10----8-----------------8-----9-------|
--------------------------10----10------------------|
----------------------------------------------------|


----------------------------|
--10-10-8--10-------8--9----|
-----------------10---------|
----------------------------|


----------------------------------------------------|
--10----10-10-10----8-----------------8-----9-------|
--------------------------10----10------------------|
----------------------------------------------------|


----------------------------|
--10-10-8--10-------8--9----|
-----------------10---------|
----------------------------|


----------------------------------------------------|
--10----10-10-10----8-----------------8-----9-------|
--------------------------10----10------------------|
----------------------------------------------------|


--------------------8--9----|
--10-10-8--10----10---------|
----------------------------|
----------------------------|


--10----10-10-10----8-----------------8-----9-------|
--------------------------10----10------------------|
----------------------------------------------------|
----------------------------------------------------|


--10-10-8--10---------------|
--------------------8--9----|
-----------------10---------|
----------------------------|


----------------------------------------------------|
--10----10-10-10----8-----------------8-----9-------|
--------------------------10----10------------------|
----------------------------------------------------|


--------------------10-11---|
--10-10-8--10----12---------|
----------------------------|
----------------------------|


--12----12-12-12----10----------------10----12------|
--------------------------12----12------------------|
----------------------------------------------------|
----------------------------------------------------|


--10-10-8--10---------------|
--------------------8--9----|
-----------------10---------|
----------------------------|


----------------------------------------------------|
--10----10-10-10----8-----------------8-----9-------|
--------------------------10----10------------------|
----------------------------------------------------|


----------------------------|--5--------------------5----|
--10-10-8--10-------8--9----|--------7--5--4--4--7-------|
-----------------10---------|----------------------------|
----------------------------|----------------------------|


--4--4--4--4--4--4--4--4----|--5-------------------------|
----------------------------|--------7--5--4--4--5--7----|
----------------------------|----------------------------|
----------------------------|----------------------------|


----------------------------|--5--------------------5----|
--5--5--7--7--8--8--9--9----|--------7--5--4--4--7-------|
----------------------------|----------------------------|
----------------------------|----------------------------|


--4--4--4--4--4--4--4--4----|--------4-----5-----4-------|
----------------------------|--7--7-----7-----7-----7----|
----------------------------|----------------------------|
----------------------------|----------------------------|


--7--7--5--4----------------|-----7-----7-----7-----7----|
--------------7-------------|--5-----8-----5-----8-------|
--------------------5-------|----------------------------|
----------------------------|----------------------------|


-----7-----7-----7-----7---||----|----||
--5-----8-----5-----8-----o||----|----||
--------------------------o||----|----||
---------------------------||----|----||
Login or Register to remove this ad.