Ads

Don of the Slums (Final Fantasy VII) Guitar Tab

Submitted: Feb 07, 2012 by JordanVS

5
Average: 5 (4 votes)
Download | Listen
Game: Final Fantasy VII
Composer(s): Nobuo Uematsu
Style: Arrangement, Fingerstyle, Percussion
Series: Final Fantasy

This song is also called Don Corneo's Theme

AutoScroll: Slow | Medium | Fast
Don of the Slums                                 
Don Corneo Theme
Final Fantasy VII
Nobuo Uematsu


Guitar

     E  E  E  E  Q    Q       Q    E  E  H           E  E  E  E  E  E  E  E   
E||-----------0------------|----------------------|--------1-----------1-----|
B||--------0-----4----0----|--3-------0--1--------|--L--3-----3-----3-----3--|
G||-----0------------------|-------2--------------|--------------------------|
D||--2-----------1---------|--0-------------------|--------------------------|
A||------------------------|-------------3--------|--L-----------------------|
E||--0---------------------|----------------------|--------------------------|


       ^    v                 ^    v                 ^    v             
  Q    Q    Q    Q       Q    Q    Q    Q       Q    Q    Q    S S S S  
----------------------|-------7----8---------|-----------------------5-|
-------4----5---------|-------7----8---------|-------4----5----5-7-8---|
--x----4----5----x----|--x----7----9----x----|--x----4----4------------|
--x----4----5----x----|--x--------------x----|--x----4----5------------|
----------------------|----------------------|-------------------------|
----------------------|----------------------|-------------------------|


  Q    Q    Q    Q       E  E  E  S S Q    Q       Q    E  S S H         
--7-------------------|--3--------5-3-2---------|--1-------3-1----------|
-------4----5---------|-------------------------|--------------4--------|
-------4--------------|-----------0-------------|-----------------------|
----------------------|--------0------4----0----|--3-------0---3--------|
-------2--------------|-----1---------2---------|--0----3---------------|
------------0---------|--3----------------------|--------------4--------|


  W                     E  S E  S S S E  S E  S S S  
-------------------||-------------------------------|
--L----------------||--------6--3----------6--------|
-------------------||*--3---------3---3-------5-3---|
--L----------------||*-----5--------5----4--------4-|
-------------------||-------------------------------|
--L----------------||---3-------------3-------------|


  E  S E  S S S E  S E  S S S    E  S E  S S S E  S E  S S S  
------------------------------|------------------------------|
-------6--3----------6--------|-------6--3----------6--------|
--3---------3---3-------5-3---|--3---------3---3-------5-3---|
-----5--------5----4--------4-|-----5--------5----4--------4-|
------------------------------|------------------------------|
--3-------------3-------------|--3-------------3-------------|


  E  S S S S S S E  S S S S S S    E  S E  S S S E  S E  S S S  
----------------------1---------|------------------------------|
-------6---3--------------3-----|-------3--0----------3--------|
--3----------3---3--0-------3---|--0---------0---0-------2-0---|
-----5---------5--------------0-|-----2--------2----1--------1-|
--------------------------------|----------------2-------------|
--3------3-------2------1-------|--0---------------------------|


  E  S E  S S S E  S E  S S S    E  S E  S S S E  S E  S S S  
------------------------------|------------------------------|
-------3--0----------3--------|-------3--0----------3--------|
--0---------0---0-------2-0---|--0---------0---0-------2-0---|
-----2--------2----1--------1-|-----2--------2----1--------1-|
----------------2-------------|----------------2-------------|
--0---------------------------|--0---------------------------|


  ^                    
  H        H           
---------------------||
--3------------------||
--0-----------------*||
--2-----------------*||
---------------------||
-----------0---------||




Duration Legend
---------------
W - whole
H - half
Q - quarter
E - 8th
S - 16th


Tablature Legend
----------------
L - tied note
x - dead note
^ - brush up
v - brush down
Login or Register to remove this ad.

2 comments on Don of the Slums

Wow very nice, and not too

Wow very nice, and not too complicated to play =)

Thanks,i believe the only

Thanks,i believe the only challenging part is the last one,overall it's fairly easy :D