Desert Wasteland (Final Fantasy VII) Guitar Tab

Submitted: Aug 09, 2010 by Bhael

5
Average: 5 (8 votes)
Download | Listen
Game: Final Fantasy VII
Composer(s): Nobuo Uematsu
Style: Arrangement, Fingerstyle
Series: Final Fantasy

AutoScroll: Slow | Medium | Fast
                               Desert Wasteland                                 
                               Final Fantasy VII
                                 Nobou Uematsu



     Q    Q.     E     Q    H           Q    Q.     E     Q    H         
E||-----------------|----------------|-----------------|----------------|
B||-------3---------|-------1--------|-------3---------|-------1--------|
G||--0--------------|----------------|--0--------------|--1-------------|
D||--------------0--|--3-------------|--------------0--|----------------|
A||-----------------|----------------|-----------------|----------------|
E||--3--------------|--1-------------|--3--------------|--1-------------|


  Q    Q.     E     Q    H           Q    Q.     E     Q    H         
-----------------|----------------|-----------------|----------------|
-------3---------|-------1--------|-------3---------|-------4--------|
--0--------------|----------------|--0--------------|--1-------------|
--------------0--|--3-------------|--------------0--|----------------|
-----------------|----------------|-----------------|----------------|
--3--------------|--1-------------|--3--------------|--1-------------|


                                                       |--3--|  
  H        E  S  S      E  E  H           E  E  Q.     S  S  S  
-------------------||------------------|-----------------------|
--L--------L-------||---3--------------|--1--------------------|
--------------3h-5-||*-----3-----------|-----2-----------------|
-------------------||*--------5--------|--------3------1h-3p-1-|
-------------------||------------------|-----------------------|
-------------------||---3--------------|--1--------------------|


  E  E  E  Q.        E  E  E  Q    S S    E  E  H           E  E  Q.     E   
------------------|--------------------|-----------------|--------1---------|
-----------3------|-----------1------1-|--3--------------|--1------------4--|
--------3---------|--------2-------3---|-----3-----------|-----2------------|
-----5------------|-----3--------------|--------5--------|------------------|
--5---------------|--------------------|-----------------|------------------|
--3---------------|--1-----------------|--3--------------|--1---------------|


                                                                       |--3--|  
  E  E  E  Q.        E  E  E  Q.        E  E  H           E  E  Q.     S  S  S  
------------------|------------------|-----------------|-----------------------|
--3--------3------|-----------1------|--3--------------|--1--------------------|
--------3---------|--------2---------|-----3-----------|-----2-----------------|
-----5------------|-----3------------|--------5--------|--------3------1h-3p-1-|
------------------|------------------|-----------------|-----------------------|
--3---------------|--1---------------|--3--------------|--1--------------------|


  E  E  E  Q.        E  E  E  Q.        E  E  Q.     E     Q    Q.     S  S  
------------------|------------------|---------------3--|--1----------------|
-----------3------|-----------1------|--3---------------|-------1-----------|
--------3---------|--------2---------|-----3------------|--------------3p-2-|
-----5------------|-----3------------|--------5---------|-------------------|
--5---------------|------------------|------------------|-------------------|
--3---------------|--1---------------|--3---------------|--1----------------|


  E  E  E  Q.        E  E  E  Q.        E  E  E  Q.        E  E  E  Q.      
-----------3------|-----------1------|-----------3------|------------------|
--------3---------|--------1---------|--------3---------|--------1--4------|
-----3------------|-----1------------|-----3------------|-----1------------|
--5---------------|------------------|------------------|------------------|
------------------|------------------|------------------|------------------|
--3---------------|--1---------------|--3---------------|--1---------------|


  H        E  S  S      E  E  E  Q.        H.            
--------------------||------------------|---------------|
--L--------L--------||--------1--4------|--L------------|
--------------3h-5-*||-----1------------|---------------|
-------------------*||------------------|---------------|
--------------------||------------------|---------------|
--------------------||--1---------------|---------------|


    ^                     ^                     ^                   
    Q      E    Q.        Q      E    Q.        Q      E    Q.      
|---6------------------|--4------------------|--3------------------|
|---3------------------|--1------------------|--3------------------|
|*--3----<>5--<>3------|--1----<>3--<>1------|--3----<>5-----------|
|*---------------------|---------------------|------------<>5------|
|----------------------|---------------------|---------------------|
|---3------------------|--1------------------|--3------------------|


  ^                     ^                 ^               ^               
  Q      E    Q.        Q    Q    Q       H.              Q    Q    Q     
--1------------------|------------3----|---------------|-----------------|
--1------------------|--4----6---------|--3------------|-------3----4----|
--1----<>3-----------|-----------------|---------------|--5--------------|
------------<>3------|--5--------------|--3------------|--5--------------|
---------------------|-----------------|---------------|-----------------|
--1------------------|--3--------------|--1------------|--3--------------|


  ^                                                                      
  Q     H              Q    H           Q    H           Q    H          
-------------------||----------------|----------------|----------------||
-------(1)---------||-------1--------|-------1--------|-------1--------||
------------------*||----------------|----------------|----------------||
--3---------------*||--3-------------|--3-------------|--3-------------||
-------------------||----------------|----------------|----------------||
--1----------------||--1-------------|--1-------------|--1-------------||




Duration Legend
---------------
W - whole
H - half
Q - quarter
E - 8th
S - 16th
T - 32nd
X - 64th
. - note dotted
|-n-|  - n-tuplets


Tablature Legend
----------------
L - tied note
x - dead note
g - grace note
(n) - ghost note
> - accentuded note
NH - natural harmonic
AH - artificial harmonic
TH - tapped harmonic
SH - semi harmonic
PH - pitch harmonic
h - hammer on
p - pull off
b - bend
br - bendRelease
pb - preBend
pbr - preBendRelease
brb - bendReleaseBend
\n/ - tremolo bar dip
\n - tremolo bar dive
-/n - tremolo bar Release up
/n\ - tremolo bar inverted dip
/n - tremolo bar return
-\n - tremolo bar Release down
S - shift slide
s - legato slide
/ -  slide into from below or out of upwards
\ -  slide into from above or out of downwards
~ - vibrato
W - wide vibrato
tr - trill
TP - tremolo picking
T - tapping
S - slap
P - pop
< - fade in
^ - brush up
v - brush down
Login or Register to remove this ad.

4 comments on Desert Wasteland

accurate

this is one of the most accurate tabs i have heard! but it is quite boring to play.

Boring to play!? The song

Boring to play!? The song sounds incredible. What more could you ask for!

I love it but holy crap it

5

I love it but holy crap it could use a capo 1 haha

Love how simple/sparse this

5

Love how simple/sparse this arrangement is. Evokes exactly the theme that this song is trying to get at. I'm 7 years late but well done