Ads

Descendant of Shinobi (Final Fantasy VII) Guitar Tab

Submitted: Apr 10, 2020 by JordanVS (Last updated: Apr 13, 2020)

5
Average: 5 (5 votes)
Download | Listen
Game: Final Fantasy VII
Composer(s): Nobuo Uematsu
Style: Arrangement, Fingerstyle
Series: Final Fantasy

AutoScroll: Slow | Medium | Fast
Descendant of Shinobi                                         
Final Fantasy VII
Piano Collections
Nobuo Uematsu & Shiro Hamaguchi
JordanVS

The Descendant of Shinobi track from the Piano Collections Album. 

*Capo on the 3st fret
Drop D Tuning
Tempo: 110 ~ 4/4 - Triplet 8th feel

                                             ^                                       
                                                                   |--3--|           
     Q    E  E  Q    Q       Q    E  E  Q    E  S  S    Q    E  E  E  E  E  E  S  S  
E||------------------3----|--------------------------|----------------------3-------|
B||-------3----------3----|-------5----------3-------|----------------------3-------|
G||-------4----------4----|-------5----------5-------|-------7--------------4-------|
D||----------0------------|-------5----------4-------|-------7--0-----0--5--L-------|
A||-----------------------|--0-------0---------------|-------------------------2s-1-|
D||--5----------2---------|-------------0----L--2s-4-|--5----------2----------------|


  E  Q    E  E  E   E  E     Q    E  E  Q    E  E     Q    E  E  E  E  E  E   
--5-----------------------|------------------------|-------------------------|
--5--3-----------------0--|--L----3----------3--0--|-------0--1--0--------0--|
--5--5----------0h--2-----|-------4----------------|----------------0--2-----|
-----5--------------------|----------0-------4-----|-------2-----------1-----|
--0-------0---------------|------------------------|--0-------0--------------|
-------------0------------|--5----------2----------|-------------0-----------|


             |--3--|                   |--3--|                                         
  Q    E  E  E  E  E  E  S  S    E  E  E  E  E  E  E   E  E     Q    E  E  Q    E  E   
----------------------3-------|--5---------------------------|------------------------|
--L----3--------------3-------|--5--3---------------------0--|--L----3----------3--0--|
-------4--------------4-------|--5--5--------------0h--2-----|-------4----------------|
-------5--0-----0--5--L-------|-----5-----2------------------|----------0-------4-----|
-------------------------2s-1-|--0-----L-----0---------------|------------------------|
--5----------2----------------|-----------------0------------|--5----------2----------|


                                        |--3--|                                   
  Q    E  E  E  E  E  E     E  E  E  E  E  E  E  E  E     E  E  E  Q    E  E  E   
-------------------------|-----------------------0-----|--1--1-----2----3--2--0--|
-------0--1--0--------0--|--L-----4--------------------|--3--3-----4-------------|
-------0--------0--2-----|--------2--------------2-----|--1--1-----2----4--2--0--|
----------2--------2-----|-----4--------------4--------|-------------------------|
--0----------------------|--2--------2--L--2--------2--|--L--------2-------------|
-------------4-----------|-----------------------------|-------------------------|


                            |--3--|                                            
  Q    E  E  E  E  E  E     E  E  E  E  E  E  E  Q       Q.     E  E  Q    E   
--L----0--2--0-----------|----------------------------|-----------------------|
----------------3-----0--|--L-----------3-----L-------|--------------------0--|
--L----0--2--0--------0--|--L-----0--2--4-----2--0----|--0---------0--2-------|
-------2--------4--------|-----0--------5-----2--0----|--2------2--1----------|
--3----------3-----5-----|----------------------------|--0---------0----------|
-------------------------|--5-----------2--L----------|-----------------------|


                                         ^                                   
  Q    E  Q    E  E  E     Q    E  E  E  E  E  E     Q    E  E  E  E  E  E   
--0------------3--2--0--|--L----0--2--0-----------|----------0--------------|
--0----4--3-------------|----------------3--L--0--|--L----0-----0-----------|
-------4--4----4--2--0--|--L----0--2--0--5--L--0--|--L----0--------2--0--2--|
--2----4--5-------------|----------------4--L-----|----------0--------0-----|
------------------------|--3-------3--------------|-------------------------|
--5-------5-------------|-------------0-----------|--5----------2-----------|


       |--3--|        |--3--|                             |--3--|        |--3--|         
  Q    E  E  E  E  E  E  E  E     E  E  Q    Q    Q       E  E  E  E  E  E  E  E  E  E   
--0----0--------1-----1--------|--2-----2----7----2----|--3-----------------------------|
--1----1--------2-----2--------|--5-----3--------------|-----------0--------------1-----|
--L----------------0--L--------|--5-----5----4---------|--0-----0-----0--------0-----0--|
----------2--------------------|--------0---------4----|-----0--------------2-----------|
--0----L-----0-----------4--0--|-----------------------|-----------------0--------------|
----------------1--------------|--0--------------------|--5-----------------------------|


                    PM PM PM    PM   PM PM PM   PM      PM PM PM PM PM PM PM PM  
  |--3--|                                                                        
  E  E  E  E  E  E  E  E  E     Q    E  E  Q    Q       E  E  E  E  E  E  E  E   
-----------------------------|--0----0---------------|--------------------------|
-----------2--3--------0--3--|--1----1-----1---------|-----3--------------0--3--|
--------0-----0--L--0-----0--|----------0--2----2----|--4-----4--------0-----0--|
-----2-----------------------|-----------------------|-----------2--5-----------|
--1-----------2--L-----------|-----------------------|--------------------------|
-----------------------------|-----------------------|--------------------------|


  PM   PM PM PM   PM      PM PM PM   PM PM                                
  Q    E  E  Q    Q       E  E  Q    E  E  E  E     Q    Q    Q    E  E   
--0----0---------------|-------------------------|--0----0----2-------0--|
--1----1-----1---------|-----3-------------0--3--|-----------------------|
----------0--2----2----|--4-------------0--------|--0----0----2-------0--|
-----------------------|--------4----2-----0-----|-------2---------4-----|
-----------------------|-------------------------|--3---------3----------|
-----------------------|----------------------5--|-----------------------|


                        ^                                                          
                                                           |--3--|       |--3--|   
  E  E  E  E  Q.        E     H        E  E  E  E     Q    E  E  E  Q    E  E  E   
-----0--2--3--L------<>12--|--L--------------------|--0----0--------2----2--------|
--4--0--0--0--L------<>12--|--L-----------0--------|--1----1--------3----3--------|
--4--------0--L------<>12--|--L--------------2--0--|----------------2----2--------|
--------1--2--L------------|-----------------------|----------2-------------4-----|
--2--4---------------------|-----------------------|--0----L-----0--2----L-----2--|
---------------------------|-----------------------|------------------------------|


           NH                                                                                       
           |--3--|                       |-3| |3|  |--3--|  |-3| |3|                                
  E  E     E  E  E  E  E  E  E     E  E  E  S S E  E  E  E  E  S S E     E  S S S S S S E  E  Q     
--8-----------------2--5-----3--|--L----------------------------------|-----------------3----------|
--8-----<>12--------5--4-----3--|--L----------1----L-----------3------|--L------------3-5----------|
--9--0--<>12--------5--5-----3--|--L--------0------L--------2----0----|--L--------0-4---4----------|
-----------------------4--------|--------0---------------2------------|-------0-2------------------|
--0--------L--3--0--------------|-----1---------------3---------------|-----2----------------------|
--------------------0--------1--|--L------------3--L---------------5--|--L-------------------------|


                                                                        ^        
                  |---3---|                                                      
  Q      H        E   E   E     Q    E  E  Q    Q       Q    E  E  Q    E  S  S  
-----------------------------|------------------3----|--------------------------|
-----------------------------|-------3----------3----|-------5----------3-------|
-----------------------------|-------4----------4----|-------5----------5-------|
------------------2s--1p--0--|----------0------------|-------5----------4-------|
-------4g5-------------------|-----------------------|--0-------0---------------|
-----------------------------|--5----------2---------|-------------0----L--2s-4-|


                                                     ^                                  
             |--3--|                   |--3--|                                          
  Q    E  E  E  E  E  E  S  S    E  E  E  E  E  Q    E  S  S    Q    E  E  E  E  E  E   
----------------------3-------|--5---------------------------|-------------------------|
----------------------3-------|--5--3----------------3-------|-------3-----------0--2--|
-------7--------------4-------|--5--5----------------5-------|-------4--------2--------|
-------7--0-----0--5--L-------|-----5-----2----------5-------|-------5--0--------------|
-------------------------2s-1-|--0-----L-----0---------------|-------------------------|
--5----------2----------------|-----------------0----L--2s-4-|--5----------2-----------|


  E  E  E  E  E  E  E  E     E  E  E  E  E  E  E  E     E  E  E  E  E  E  Q     
--------------------0-----|--------------------------|--------------------0----|
--L-----2--------------2--|--L-----2--3--2--------2--|--L-----2-----------2----|
--------2-----------2-----|--------2--------2--4-----|--------2-----------2----|
-----2-----2-----2--------|-----4-----4--2--4--L-----|-----2-----2-----2-------|
--0-----------4-----------|--2-----------------------|--0-----------4----------|
--------------------------|--------------------------|-------------------------|


                               |--3--|                       |--3--|                     
  E  E  E  S  S E  E  E  E     E  E  E  E  E  E  E  E  E     E  E  E  E  E  E  E  E  E   
----------------------------|-----------------------------|-----------------------------|
--------4----------------4--|--L-----2--4-----------7--4--|--L--------4--5--4-----2--4--|
--------2----------4--6-----|-----------4-----------4-----|--------6--4--------4--3-----|
-----4----------------------|-----4--------4-----4--------|-----6--------------2--------|
--2-------------------------|--2--------------------------|--4-----------4--------------|
-----------6s-5-4-----------|-----------------6-----------|-----------------2-----------|


  |--3--|                                                                        
  E  E  E  E  E  Q    E  E     E  E  E  Q    E  E  E     Q    E  E  E  E  E  E   
-----------------1----1-----|--2--2-----3----7--6--4--|-------4--6--4--2--------|
-----------4-----0----0-----|--1--1-----2-------------|----------------------4--|
-----------6-----1----1-----|--2--2-----3----8--6--4--|-------4--6--4--3-----4--|
--------1--5----------------|-----1-------------------|-------2-----------4-----|
-----1----------------------|-------------------------|-------------------------|
--1--------------1----L--1--|--1--------1-------------|--2----------4-----------|


  |--3--|                                                                     
  E  E  E  E  E  E  E  Q       Q.     E  E  Q    E     Q    E  Q    E  E  E   
----------------------------|-----------------------|--4----3--4----7--6--4--|
--L-----------7-----L--0----|--------------------4--|--4----2----------------|
--L-----4--6--8-----6-------|--4---------4--6-------|----------4----8--6--4--|
-----4--------9-----8--6----|--6------6--5----------|------------------------|
--2-------------------------|--4---------4----------|--2----0----------------|
--------------6--L----------|-----------------------|----------6-------------|


                ^                                                               
                                                           |--3--|              
  Q    E  E  E  Q    E     Q    E  E  E  E  E  E     E  E  E  E  E  E  E  Q     
--L----4--6--4--2-------|----------4--------------|--0-----0-------------------|
---------------------4--|--L----4-----4-----------|--0-----0--------6-----6----|
--L----4--6--4--3----4--|--L----4--------6--4--6--|-----------------6-----6----|
----------------4-------|-------------------------|-----6--L-----------3-------|
--7---------------------|--2----------------------|--4--------4-----------4----|
-------------4----------|-------------6-----------|--------------6--5----------|


  |-3| |3|                       |--3--|        |--3--|           |--3--|                    
  E  S S E  E  E  E  E  E  E     E  E  E  E  E  E  E  E  E  E     E  E  E  E  E  E  E  Q     
------------2--------2--6--7--|--L-----------------------------|-----------1--2--L-----0----|
--7------L--3--3--L-----3--4--|-----------4--------------5-----|--------0-----0--L-----0----|
--6--5---4--3--------3--------|--------4--------------4--------|-----1-----1----------------|
---------------4--L-----------|-----4--------4-----6--------6--|--0--------------1--4-------|
------------------------------|--2--------------4--------------|-----------------------4----|
--4---------------------------|--------------------------------|----------------------------|


  |--3--|  |--3--|  |--3--|  |--3--|     |--3--|  |--3--|                                         
  E  E  E  E  E  E  E  E  E  E  E  E     E  E  E  E  E  E  E  E  E  E     E  E  E  E  E  E  Q     
--------------------------------------|-----------1--------2--------2--|--4-----4-----0----------|
-----------4-----------------5--------|--------0-----0-----0-----4-----|--------4-----------2----|
--------4-----4-----------4-----4-----|-----1-----------1-----4--------|--------4-----------3----|
-----4-----------4-----6-----------6--|--0--------0--------1-----4-----|-----2-----2-----2-------|
--2--------2--------4--------4--------|-----------------------2--------|-------------------------|
--------------------------------------|--------------------------------|--2-----------4----------|


  E  E  E  E  E  E  E  E     E  E  E  E  E  E  E  E     E  E  E  E  E  E  E  E   
-----2--------------------|--4-----4-----0-----------|-----2-----------------2--|
--4-----4-----------4--7--|--------4--------------2--|--4-----4--------0--4-----|
--------4--------4--4-----|--------4-----------3-----|--------2--------------2--|
-----4-----4-----4--------|-----2-----2-----2--------|-----4-----------1--4-----|
--2-----------------------|--------------------------|--2--------2--L-----------|
--------------6-----------|--2-----------4-----------|--------------------------|


                                                      |--3--|                    
  Q    E  E  Q    E  E     E  E  E  E  Q      Q       E  E  E  Q    E  E  E  E   
--4----4-----6-------4--|--3--4--6--7--L----3g4----|----------------------------|
-------------2----2-----|--------------------------|--4--0-------------4--2--0--|
--4----4----------3--4--|--3--4--6--8--L------4----|--1-----1--L----L-----------|
-------2----------4-----|-----------6--L-----------|--------1--L----L-----------|
----------4----------4--|--------6-----------------|----------------------------|
--2----------2----------|--1--------6--L-----------|----------------------------|


       |--3-|       |--3-|          |--3-|       |--3-|          |--3-|       |--3-|   
  Q    Q    E  Q    Q    E     Q    Q    E  Q    Q    E     Q    Q    E  Q    Q    E   
----------------------------|----------------------------|--7----L--------------------|
--L-------------------------|--5----4-------0----2-------|--5----5-------7----7-------|
--1----1-------3----3-------|--4----4-------1----3-------|--4----4-------6----6-------|
--2----2-------4----4-------|--6----6-------0----2-------|----------------------------|
--4----L----4--6----L----6--|--7----L----7---------------|--4----L----4--6----L----6--|
----------------------------|---------------4----L----4--|----------------------------|


       |--3-|     |3|                |--3-|       |--3-|                            
  Q    Q    E  E  S E  E  E     Q    Q    E  Q    Q    E     Q    Q    E  E  E  E   
-----------------------------|--4----4--------------------|--0---------------------|
--5----4----------4----2--0--|--5----5-------7----7-------|--0----4----------------|
--4----4---------------3-----|--4----4-------6----6-------|--1----1----4--6-----4--|
--6------------4-------------|---------------9----9-------|-------2-------4--------|
--7----L----7--6----L--------|--4----L----4--6----L----6--|------------------------|
-----------------------------|----------------------------|--2---------4-----------|


        |--3--|                                                                 
  E  E  E  E  E  E  E  E  E     Q    E  E  Q    Q       Q    E  E  E  E  E  E   
-----4-----------------------|------------------3----|-------------------------|
--------5-----------------0--|--L----3----------3----|-------5--------------0--|
--L--------4-----4--6--------|-------4----------4----|-------5--------0--2-----|
--------------6--------------|----------0------------|-------5-----------4-----|
-----------------------------|-----------------------|--0-------0--------------|
-----------------------------|--5----------2---------|-------------0-----------|


                                                      |--3--|        |--3--|         
  Q    E  E  E  E  E  E     E  E  E  E  Q    E  E     E  E  E  E  E  E  E  E  E  E   
----------------3--2--3--|--0----------------------|-----------3--------------3-----|
--L----3-----------------|-----1----------------3--|--L--------0--------------1-----|
-------4--------4--2--4--|--0--------2--L----------|--------0--------------0--------|
-------5--0--------------|-----2-------------4-----|-----0--------0-----2--------2--|
-------------------------|--0--------3--L----5-----|-----------------0--------------|
--5----------2-----------|--------------0----------|--5-----------------------------|


  |--3--|                                                                        
  E  E  E  E  E  E  E  E  E     Q    E  E  E  E  E  E     E  E  E  E  Q    Q     
-----------3--5--L--3--5--7--|--L-------------3--2--3--|--0----------------2----|
-----------3--4--L-----------|-------3-----------------|-----1-------------3----|
--------0--4--0--L--4--5--7--|--L----4--------4--2--4--|--0--------2--L----3----|
-----0-----------------------|-------5--0--------------|-----2------------------|
--2--------------------------|-------------------------|--0--------3--L---------|
-----------------------------|--5----------2-----------|--------------0---------|


                                                                               ^     
       |--3--|                       |--3--|  |----3----|                            
  Q    E  E  E  E  E  E  E     E  E  E  E  E  Q    Q    Q       Q    H         Q     
--3-------------------------|---------------------------6----|-------2--------10----|
-------3--------------------|----------------------4---------|-------3--------10----|
----------3-----5--3-----8--|--L--------------3---------L----|-------2---------9----|
-------------5--3--1-----8--|--L-----------3------------L----|-------5---------9----|
-------6--------5--3--------|-----------3---------------L----|----------------10----|
-------------------------6--|--L--1--4-----------------------|----------------------|


  W                  
--L----------------||
--L----------------||
--L----------------||
--L----------------||
--L----------------||
-------------------||




Duration Legend
---------------
W - whole
H - half
Q - quarter
E - 8th
S - 16th
T - 32nd
X - 64th
. - note dotted
|-n-|  - n-tuplets


Tablature Legend
----------------
L - tied note
x - dead note
g - grace note
(n) - ghost note
> - accentuded note
NH - natural harmonic
AH - artificial harmonic
TH - tapped harmonic
SH - semi harmonic
PH - pitch harmonic
h - hammer on
p - pull off
S - shift slide
s - legato slide
/ -  slide into from below or out of upwards
\ -  slide into from above or out of downwards
< - fade in
^ - brush up
v - brush down
Login or Register to remove this ad.

4 comments on Descendant of Shinobi

wow thats fun to play. thanks

wow thats fun to play. thanks again mr. jordan for another great tab

Incredible.

5

One of your best works, and imo, one of the best tabs on the site. This is truly amazing work - thank you!

Thanks for your tabs! I have

5

Thanks for your tabs! I have played many of your FFIII recordings.

This tab is a labor of love,

5

This tab is a labor of love, and it shows