Ads

Descendant of Shinobi (Final Fantasy VII) Guitar Tab

Submitted: Feb 09, 2010 by musenji

5
Average: 5 (2 votes)
Download | Listen
Game: Final Fantasy VII
Composer(s): Nobuo Uematsu
Style: 2 or more instruments, Transcription
Series: Final Fantasy

AutoScroll: Slow | Medium | Fast
Descendant of the Shinobi (Yuffie's theme)
Final Fantasy VII
composed by Nobuo Uematsu
tabbed by musenji, 2006


The accompaniment is (I believe) a note-for-note transcription of the actual 
guitar part in the piece.  There are a couple parts where you'll have to use 
barre chords.


The melody works great with guitar, but can be played by any instrument.  Play 
with a friend; then you can be all: "Okay let's start at measure 7".  Good times.

TOTALLY RELEVANT NOTE: add auriplane's bass for a trio!



The whole thing is in swing, but since you're here, you probably knew that already.

Have at it!



Accompaniment:


e|----3-------3-------3-------3---|----3-------3-------3-------3---|
B|----1-------0-------1-------0---|----1-------0-------1-------0---|
G|--0---0---0---0---2---2---0---0-|--0---0---0---0---2---2---0---0-|
D|--------------------------------|--------------------------------|
A|--------2-------0-------2-------|--------2-------0-------2-------|
E|3-------------------------------|3-------------------------------|


e|----3-------3-------0-------0---|----3-------3-------3-------3---|
B|----0-------0-------1-------1---|----0-------0-------0-------0---|
G|--0---0---0---0---0---0---0---0-|--0---0---0---0---0---0---0---0-|
D|--------0-----------------------|------------------------0-------|
A|----------------3---------------|2---------------2---------------|
E|3-----------------------3-------|--------3-----------------------|
                                  

e|----3-------3-------0-------0---|----2-------2-------2-------2---|
B|----0-------0-------1-------1---|----3-------3-------3-------3---|
G|--0---0---0---0---0---0---0---0-|--4---4---4---4---4---4---4---4-|
D|--------0-----------------------|------------------------4-------|
A|----------------3---------------|2---------------2---------------|
E|3-----------------------3-------|--------2-----------------------|


e|----0-------0-------3-------3---|----0-------0-------3-------3---|
B|----1-------1-------0-------0---|----1-------1-------0-------0---|
G|--0---0---0---0---0---0---0---0-|--0---0---0---0---0---0---0---0-|
D|--------2-------0---------------|--------2-------0---------------|
A|3-------------------------------|3-------------------------------|
E|------------------------3-------|------------------------3-------|

		  					
e|----0-------0-------2-------2---|----0-------0-------3-2---------|
B|----1-------1-------3-------3---|----1-------1-------1-1---------|
G|--0---0---0---0---4---4---4---4-|--2---2---2---2---2-------------|
D|--------2-------4---------------|----------------0---------------|
A|3-----------------------2-------|0-------------------------------|
E|--------------------------------|--------0-----------------------|


e|----3-------3-------3-------3---|----0-------2-------3-------3---|
B|----0-------0-------0-------0---|----1-------1-------0-------0---|
G|--0---0---0---0---0---0---0---0-|--0---0---2---2---0---0---0---0-|
D|--------0---------------0-------|--------0-----------------------|
A|--------------------------------|3-----------------------2-------|
E|3---------------3---------------|----------------3---------------|


e|----0-------2-------3-------3---|----0-------2-------2-0---------|
B|----1-------1-------0-------0---|----1-------1-------0-0---------|
G|--0---0---2---2---0---0---0---0-|--0---0---2---2---2---0---------|
D|--------0-----------------------|--------0-----------------------|
A|3-----------------------2-------|3---------------2---------------|
E|----------------3---------------|----------------------0---------|


e|--------------------------------|----0-------0-------0-------2---|
B|--------------------------------|----1-------1-------1-------1---|
G|--------------------------------|--0---0---0---0---0---0---2---2-|
D|--------------------------------|------------------------0-------|
A|--------------------------------|3---------------0---------------|
E|--------------------------------|--------3-----------------------|


Melody:


e|------------------------------------|------------------------------7-|
B|------------------------------------|------------------------8-10----|
G|------------------------------------|--------------------------------|
D|------------------------------------|--------------------------------|
A|------------------------------------|--------------------------------|
E|------------------------------------|--------------------------------|

e|---------------10-7----7-8-7------7-|------------------------------7-|
B|-----------------------------8-10---|------------------------8-10----|
G|------------------------------------|--------------------------------|
D|------------------------------------|--------------------------------|
A|------------------------------------|--------------------------------|
E|------------------------------------|--------------------------------|


e|---------------10-7----7-8-7------7-|-----------------------15-14-12-|
B|-----------------------------8-10---|--------------------------------|
G|------------------------------------|--------------------------------|
D|------------------------------------|--------------------------------|
A|------------------------------------|--------------------------------|
E|------------------------------------|--------------------------------|


e|-12-14-12-10------------------------|-----------------------15-14-12-|
B|-------------12---------------------|-8-----8-10--12-----------------|
G|------------------------------------|-----9--------------------------|
D|------------------------------------|--------------------------------|
A|------------------------------------|--------------------------------|
E|------------------------------------|--------------------------------|


e|-12-14-12-10---------12-------------|------------------------7-------|
B|-------------12---12----12-10----10-|----------------------------7---|
G|------------------------------12----|--------------------------------|
D|------------------------------------|--------------------------------|
A|------------------------------------|--------------------------------|
E|------------------------------------|--------------------------------|

				 						
e|---------------------------------10-|-12-12-8--------10-----------10-|
B|-8----------------------------12----|----------10-12-----------12----|
G|---------------------------12-------|-----------------------12-------|
D|------------------------------------|--------------------------------|
A|------------------------------------|--------------------------------|
E|------------------------------------|--------------------------------|


e|-12-12-8--------10---------------10-|12---12---14-----12-11-12-14-15-|
B|----------10-12---------------12----|--------------------------------|
G|---------------------------12-------|--------------------------------|
D|------------------------------------|--------------------------------|
A|------------------------------------|--------------------------------|
E|------------------------------------|--------------------------------|


e|-----------------------------7------|----------------8---7-----------|
B|-------------------------------10-8-|------------------------7-10--8-|
G|------------------------------------|--------------------------------|
D|------------------------------------|--------------------------------|
A|------------------------------------|--------------------------------|
E|------------------------------------|--------------------------------|


Don't lather, don't rinse, but feel free to repeat.

Login or Register to remove this ad.

2 comments on Descendant of Shinobi

I like this one Good job!

5

I like this one
Good job!

Great way to play this with

Great way to play this with another person!