Ads

Descendant of Shinobi (Final Fantasy VII) Guitar Tab

Submitted: Sep 01, 2009 by kenor (Last updated: Feb 06, 2010)

4.5
Average: 4.5 (12 votes)
Download | Listen
Game: Final Fantasy VII
Composer(s): Nobuo Uematsu
Style: Arrangement, Fingerstyle
Series: Final Fantasy

This song is also called Yuffie's Theme

Click here for a video example.

AutoScroll: Slow | Medium | Fast
Descendant of the Shinobi
~Final Fantasy VII~
Composed by: Nobuo Uematsu
Arranged by: kenor

Rhytm: 6/8 metrum, triplets (three 8th notes per beat)
              •                  •                  •               •
      Q    E  Q    E     Q    E  Q    E     Q    E  Q    E     Q    E  E  E  E
E||-------------------|------------------|----------1-------|-------------------|
B||-----------1-------|----------1-------|----------1-------|-------3-----------|
G||*----------0-------|----------0----0--|-------2-------0--|-------0-----------|
D||*-------2-------0--|-------2----------|--0---------------|-------------------|
A||---3---------------|--0---------------|------------------|-------------0--2--|
E||-------------------|------------------|------------------|--3-------3--------|

             •                  •                  •
     Q    E  Q    E     Q    E  Q    E     Q    E  Q    E     Q    E  Q    E
E||------------------|------------------|----------1-------|---------------0--|
B||----------1-------|----------1-------|----------1-------|-------1h-3-------|
G||----------0-------|----------0----0--|-------2-------0--|-------0----------|
D||-------2-------0--|-------2----------|--0---------------|------------------|
A||--3---------------|--0---------------|------------------|------------------|
E||------------------|------------------|------------------|--3---------------|

             •
     Q    E  Q    E     Q    E  Q    E     Q    E  Q    E     Q    E  Q    E
E||------------------|----------3----0--|----------0----1--|--0------------0--|
B||----------1-------|----------1-------|----------1-------|-------1h-3-------|
G||----------0-------|------------------|-------2----------|-------0----------|
D||-------2-------0--|-------2----------|--0---------------|------------------|
A||--3---------------|--0---------------|------------------|------------------|
E||------------------|------------------|------------------|--3---------------|

             •                  •                  •
     Q    E  Q    E     Q    E  Q    E     Q    E  Q    E     Q    E  Q    E
E||------------------|------------------|----------1-------|---------------0--|
B||----------1-------|----------1-------|----------1-------|-------1h-3-------|
G||----------0-------|----------0----0--|-------2-------0--|-------0----------|
D||-------2-------0--|-------2----------|--0---------------|------------------|
A||--3---------------|--0---------------|------------------|------------------|
E||------------------|------------------|------------------|--3---------------|

             •
     Q    E  Q    E     Q    E  Q    E     Q    E  Q    E     Q    E  Q    E
E||------------------|----------3----0--|----------0----1--|--0------------0--|
B||----------1-------|----------1-------|----------1-------|-------1h-3-------|
G||----------0-------|------------------|-------2----------|-------0----------|
D||-------2-------0--|-------2----------|--0---------------|------------------|
A||--3---------------|--0---------------|------------------|------------------|
E||------------------|------------------|------------------|--3---------------|

                                           •
     Q    E  Q    E     Q    E  Q    E     Q.     Q.        Q    E  Q    E
E||------------------|------------------|----------------|-------8p-7----5--|
B||----------0-------|--1-------1-------|--3------3------|------------------|
G||----------1-------|--1-------1-------|--1------1------|------------------|
D||-------2-------2--|-------2-------2--|---------2------|------------------|
A||------------------|------------------|----------------|------------------|
E||--0---------------|------------------|----------------|--0---------------|

                                                    •                  •
     Q    E  Q    E     E  E  E  Q    E     Q    E  Q    E     Q    E  Q    E
E||----------5----7--|--5-----3-------0--|------------------|------------------|
B||----------6-------|-----0-------------|----------1-------|----------1-------|
G||-------5----------|--0----------------|----------0-------|----------0-------|
D||------------------|-----------0-------|-------2-------2--|-------2-------2--|
A||--8---------------|-------------------|--3---------------|--3---------------|
E||------------------|-------------------|------------------|------------------|

                                                     •
     Q    E  Q    E     E  E  E  E  E  E     Q    E  Q    E     Q    E  Q    E
E||------------------|-----------------0--|------------------|-------8p-7----5--|
B||--1---------------|--1-----3-----------|----------1-------|------------------|
G||---------------2--|--0-----------------|----------0-------|------------------|
D||----------3-------|-----2--------0-----|-------2-------2--|------------------|
A||-------3----------|--0--------2--------|--3---------------|------------------|
E||--1---------------|--------------------|------------------|--0---------------|


     Q    E  Q    E     E  E  E  Q    E     Q    E  Q    E     Q    E  Q    E
E||----------5----7--|--5-----3-------0--|----------0----5--|--0---------------|
B||----------6-------|-----0-------------|----------0-------|-------3-------3--|
G||-------5----------|--0----------------|-------1----------|----------5-------|
D||------------------|-----------0-------|------------------|------------------|
A||--8---------------|-------------------|------------------|------------------|
E||------------------|-------------------|--0---------------|--4---------------|

             •                                       •
     Q    E  Q    E     E  E  E  E  E  E     Q    E  Q    E     Q.     Q.
E||----------1-------|--------------------|------------------|--0-------------|
B||----------1-------|--------1--------1--|----------3-------|---------0------|
G||-------2-------2--|-----2--------2-----|----------0-------|----------------|
D||--0---------------|--0-----------------|-------0-------0--|----------------|
A||------------------|-----------3--------|--2---------------|----------------|
E||------------------|--------------------|------------------|----------------|

             •                  •                  •
     Q    E  Q    E     Q    E  Q    E     Q    E  Q    E     E  E  E  Q    E
E||------------------|------------------|------------------|-----------0----3--|
B||--1---------------|------------------|----------1-------|-----------1-------|
G||----------0-------|----------0-------|----------3-------|--------3----------|
D||-------2-------2--|-------2-------2--|-------2-------2--|-----2-------------|
A||--3---------------|--3---------------|--3---------------|--3----------------|
E||------------------|------------------|------------------|-------------------|


     Q    E  Q    E     Q    E  Q    E     Q    E  Q    E     E  E  E  Q    E
E||--5-------5-------|--1---------------|--0----3----------|-----------0----3--|
B||------------------|--0-------3-------|--1---------------|--1--------1-------|
G||--5-------5----5--|----------0-------|---------------0--|-----3-------------|
D||--3-------3-------|-------0-------0--|----------2-------|--------2----------|
A||-------3----------|------------------|--3---------------|-------------------|
E||------------------|--3---------------|------------------|-------------------|


     Q    E  Q    E     Q    E  Q    E     Q    E  Q    E     E  E  E  Q    E
E||--5-------5-------|--1---------------|--0----3----------|-----------0----3--|
B||------------------|--0-------3-------|--1-------1-------|--------1--1-------|
G||--5-------5----5--|----------0-------|---------------0--|-----3-------------|
D||--3-------3-------|-------0-------0--|------------------|--2----------------|
A||-------3----------|------------------|--3---------------|-------------------|
E||------------------|--3---------------|------------------|-------------------|

                                                        ^
     Q    E  Q    E     Q    E  Q    E     Q    E  Q    E    H.  Q    E  Q    E 
E||--5-------5-------|--7------------5--|--4----5--7----8--|-L-|-L----0----------|
B||------------------|----------0-------|--0------------5--|-L-|-L-------3----1--|
G||--5-------5----5--|--0---------------|---------------5--|-L-|-L---------------|
D||--3-------3-------|-------0----------|------------------|---|-----------------|
A||-------3----------|------------------|---------------0--|-L-|-L---------------|
E||------------------|--3---------------|--0---------------|---|-----------------|

             •                  •
     Q    E  Q    E     Q    E  Q    E     Q    E  Q    E     Q    E  Q    E
E||------------------|------------------|--1-------0-------|-------------------||
B||----------1-------|----------1-------|--1-------1-------|--0----3-------1---||
G||----------2-------|----------2-------|-------2-------2--|--0---------------*||
D||-------3-------3--|-------3-------3--|--0---------------|----------0-------*||
A||------------------|------------------|------------------|-------------------||
E||--1---------------|--1---------------|------------------|--3----------------||

             •                  •                  •
     Q    E  Q    E     Q    E  Q    E     Q    E  Q    E     Q    E  Q    S S
E||------------------|------------------|----------1-------|-------------------|
B||----------1-------|----------1-------|----------1-------|-------3-----------|
G||----------0-------|----------0----0--|-------2-------0--|-------0-----------|
D||-------2-------0--|-------2----------|--0---------------|----------0--------|
A||--3---------------|--0---------------|------------------|---------------0h2h|
E||------------------|------------------|------------------|--3----------------|

             •                  •                  •
     Q    E  Q    E     Q    E  Q    E     Q    E  Q    E     Q    E  Q    E
E||------------------|------------------|----------1-------|------------------|
B||----------1-------|----------1-------|----------1-------|-------3----------|
G||----------0-------|----------0----0--|-------2-------0--|-------0-------0--|
D||-------2-------0--|-------2----------|--0---------------|---------------0--|
A||--3---------------|--0---------------|------------------|----------2-------|
E||------------------|------------------|------------------|--3---------------|

     ^
     H.
E||--0--||
B||--3--||
G||--5--||
D||-----||
A||--3--||
E||-----||


Legend:
-------

H - half
Q - quarter
E - 8th
S - 16th
. - dotted
L - tied note
h - hammer-on
p - pull-off
^ - brush up
• - staccato (mute immediately)
Login or Register to remove this ad.

6 comments on Descendant of Shinobi

This is lovely! It's a shame

5

This is lovely! It's a shame that you would think to keep this hidden from us :D

Thanks :) I just had a

Thanks :) I just had a feeling that it differs from the original too much.

Original doesnt mean 'bad'.

Original doesnt mean 'bad'. This arrangement is awesome just because it's original and sounds really nice!
5 stars!

Agreed on the count of

Agreed on the count of "original can be good"! Ever hear of the site OCRemix? It's a site for remixes of games, and they actually require for any submission to have a reasonable degree of variation from the source music! My favorite remix of the Jenova theme has certain chord variations that this actually reminds me of. So rock on!

Amazing. I love it with all

Amazing. I love it with all my heart :)

This is pretty darn cool!

5

This is pretty darn cool! Nice arrangement!

Aaaand I see that I already commented once. I don't remember playing this one before though, heh.