Descendant of Shinobi (Final Fantasy VII) Bass Tab

Submitted: Jul 07, 2009 by auriplane

5
Average: 5 (2 votes)
Download | Listen
Game: Final Fantasy VII
Composer(s): Nobuo Uematsu
Style: Transcription
Series: Final Fantasy

AutoScroll: Slow | Medium | Fast
             Final Fantasy 7 - Descendant of Shinobi BASS TAB
                          Song by Nobuo Uematsu

                  Tabbed by auriplane ([email protected])


Four-string bass, standard tuning.  Rest for four measures at the beginning.

    Part A

G|----------------|----------------|----------------|----------------|
D|----------------|----------------|--------0-------|--------0-------|
A|--------------2-|3---------------|----------------|----------------|
E|3---------------|--------------2-|3-----3-------2-|3---3-------2---|
                              
G|----------------|----------------|----------------|----------------|
D|----------------|----------------|----------------|----------------|
A|--------------2-|3-------------3-|2-----2---------|2-----2-----2---|
E|3---------------|----------------|--------2-----2-|--------2-------|
                              
G|----------------|----------------|----------------|----------------|
D|----------------|----------------|----------------|----------------|
A|3---------------|--------------2-|3---------------|--------------2-|
E|--------------2-|3---------------|--------------2-|3---------------|
                              
G|----------------|----------------|----------------|----------------|
D|----------------|----------------|--------2-----2-|0-----0-L-------|
A|3-------------3-|2-------------2-|0-----0---------|--0-3-----------|
E|----------------|----------------|----------------|----------------|

G|----------------|----------------|
D|--------0-----0-|----------------|
A|----------------|--------0---2---|
E|3-----3---------|3---3-----------|


    Part B

G|----------------|----------------|----------------|----------------|
D|--------0-----0-|----------------|--------0-----0-|----------------|
A|3-----3---------|--------2---2---|3-----3---------|----------------|
E|----------------|3---3-----------|----------------|3---3---2---3---|

G|----------------|----------------|----------------|
D|--------0-------|----------------|----------------|
A|3-----3-------3-|2-0-------------|----------------|
E|----------------|----2-0-L-------|----------------|

G|----------------|----------------|
D|----------------|--------0-------|
A|3---------------|0-----0---------|
E|------2-3-------|------------2---|

G|----------------|----------------|----------------|----------------|
D|----------------|----------------|----------------|----------------|
A|--------------2-|0---0---2-------|--------------2-|0---0---2-------|
E|3---------------|--------------2-|3---------------|--------------2-|
Login or Register to remove this ad.

2 comments on Descendant of Shinobi

Hey

5

Nice :)
I play guitar but this was indeed funny to play.
Good bass tab.

yep.

5

Them thar's the notes. Good'un. :D I'll use this to make a trio with the guitar part and the melody!