Ads

Debut (Final Fantasy VII) Guitar Tab

Submitted: Aug 27, 2010 by Daugreano

4
Average: 4 (1 vote)
Download | Listen
Game: Final Fantasy VII
Composer(s): Nobuo Uematsu
Style: Alternate picking, Transcription
Series: Final Fantasy

AutoScroll: Slow | Medium | Fast
Song: Debut
Game: Final Fantasy VII
Composer: Nobuo Uematsu
Tabbed by: Daugreano

Guitar: 

   E   E   E   E   E   E   E      Q    E   E   Q    Q      E   E   E   E   E   E   Q
E|------------------------------|------------------------|------------------------------|
B|------------------------------|------------------------|------------------------------|
G|-2---2---0---4---5---5---4----|-2----2---1---2----2----|-2---2---0---4---5---5---4----|
D|------------------------------|------------------------|------------------------------|
A|------------------------------|------------------------|------------------------------|
E|------------------------------|------------------------|------------------------------|

   Q    S  S  S  S  H       E   E   E   E   E   S  S  Q      S  S  S  S  S  S  S  S  E   Q.
E|------------------------|--------------------------------|-----------------------------------|
B|------------3-----------|-------------3-------3----------|----------5--3---------------------|
G|-5----4--5-----4--5-----|-5---5---4-------2------5--4----|-2--4--5--------5--4--2--1---2-----|
D|------------------------|--------------------------------|-----------------------------------|
A|------------------------|--------------------------------|-----------------------------------|
E|------------------------|--------------------------------|-----------------------------------|

                                                                                   
                                                         |------------------------------------
   E   E   E   E   E   E   E      Q    S  S  S  S  H       E   S  S  E   E   E   E   E.   S
E|------------------------------|------------------------|-----------------------------------|
B|------------------------------|------------------------|-15--13-12-10--8---7---8---10---12-|
G|-2---2---0---4---5---5---4----|-2----1--2--4--1--2-----|-----------------------------------|
D|------------------------------|------------------------|-----------------------------------|
A|------------------------------|------------------------|-----------------------------------|
E|------------------------------|------------------------|-----------------------------------|

                                                                                              2x
------------------------------------------------------------------------------------------------|
   E   E   E   E   Q    Q      S  S  S  S  E   E   Q    E   E     S  S  S  S  E   E   Q    Q
E|---------------------------|----------------------------------|-------------------------------|
B|-10--8---7---5---7----7----|-5--7--8--10-8---7---5----5---3---|-5--7--8--10-8---7---5----5----|
G|---------------------------|----------------------------------|-------------------------------|
D|---------------------------|----------------------------------|-------------------------------|
A|---------------------------|----------------------------------|-------------------------------|
E|---------------------------|----------------------------------|-------------------------------|

   E   E   E   E   Q    E.   S    Q   S  S  E   E   Q    Q      E   E   E   E   E   E   E   E
E|------------------------------|-----------------------------|---------------------------------|
B|------------------------------|-----------------------------|-----3---5---6---8---10--11--13--|
G|-2---2---1---3---2----2----1--|-2---2--2--1---3---2----2----|-5-------------------------------|
D|------------------------------|-----------------------------|---------------------------------|
A|------------------------------|-----------------------------|---------------------------------|
E|------------------------------|-----------------------------|---------------------------------|

   E   E   E   E   E   E   E   E     E   E   E   E   Q    E.   S    Q   S  S  E   E   Q    Q
E|---------------------------------|------------------------------|-----------------------------|
B|-11--10--8---6---5---6---8-------|------------------------------|-----------------------------|
G|-----------------------------5---|-2---2---1---3---2----2----1--|-2---2--2--1---3---2----2----|
D|---------------------------------|------------------------------|-----------------------------|
A|---------------------------------|------------------------------|-----------------------------|
E|---------------------------------|------------------------------|-----------------------------|

   E   E   E   E   E   E   E   E     E   E   E   E   E   E   E   E     W
E|---------------------------------|---------------------------------|--------|
B|-----3---5---6---8---10--11--13--|-11--10--8---6---5---3-----------|--------|
G|-5-------------------------------|-------------------------5---3---|-2------|
D|---------------------------------|---------------------------------|--------|
A|---------------------------------|---------------------------------|--------|
E|---------------------------------|---------------------------------|--------|

Play the whole thing twice, ignore the very last measure the first time through...
Login or Register to remove this ad.