Ads

Daydreaming Again (Pot Hocket) (Final Fantasy VII) Guitar Tab

Submitted: Oct 18, 2010 by hslesperance (Last updated: Jul 06, 2013)

5
Average: 5 (5 votes)
Download | Listen
Game: Final Fantasy VII
Composer(s): Nobuo Uematsu
Style: 2 or more instruments, Arrangement, Transcription
Series: Final Fantasy

This song is also called Words Drowned by Fireworks

AutoScroll: Slow | Medium | Fast
Daydreaming Again
Final Fantasy VII
Composed by Nobuo Uematsu
Arranged by Pot Hocket
Tabbed by hslesperance
10/18/10

Standard Tuning




Guitar 1

  W             Q   Q   Q     H.             W
|-------------|---------4---|-3------------|-------------|
|-------------|-1---3-------|-4------------|-------------|
|-------------|-1---3---3---|--------------|-------------|
|-------------|-------------|--------------|-------------|
|-------------|-------------|--------------|-------------|
|-------------|-------------|--------------|-------------|


  W             E E E E E E   Q.     E E E   a H.
|-------------|---3---3-4-3-|-3------6-4---|----------------|
|-------------|-4---6-------|------------6-|-6h8------------|
|-------------|-------------|--------------|----------------|
|-------------|-------------|--------------|----------------|
|-------------|-------------|--------------|----------------|
|-------------|-------------|--------------|----------------|


  Q   E E E E   Q.     E E E   Q.     E E E   Q   Q   Q
|-----3-3-3-4-|------------3-|-4------3-4-6-|-8---6---4---|
|-------------|-6------4-6---|--------------|-------------|
|-------------|--------------|--------------|-------------|
|-------------|--------------|--------------|-------------|
|-------------|--------------|--------------|-------------|
|-------------|--------------|--------------|-------------|


  E E E E E E   Q.     E E E   Q.     E E E   H.
|-3-4-3-----3-|--------------|-3------4-3---|--------------|
|-------6-6---|-4--------4-6-|------------6-|-4------------|
|-------------|--------3-----|--------------|--------------|
|-------------|--------------|--------------|--------------|
|-------------|--------------|--------------|--------------|
|-------------|--------------|--------------|--------------|


  E E E E E E   E E Q   Q     E E E E E E   E E E E E E
|-------------|-------------|-------------|-------------|
|---4-4-4-4---|-------------|-------------|-4-6-6s9-9-6-|
|-----------6-|-5-6-3-------|---------5-6-|-------------|
|-------------|---------6---|---3-5-6-----|-------------|
|-------------|-------------|-------------|-------------|
|-------------|-------------|-------------|-------------|


  a E E Q.     E   H       E E   Q.     E E E   H.
|----------------|-------------|--------------|-------------|
|-6h8-6-8------6-|-----------6-|-8------9-8-6-|-------------|
|----------------|-8-------8---|--------------|-8-----------|
|----------------|-------------|--------------|-------------|
|----------------|-------------|--------------|-------------|
|----------------|-------------|--------------|-------------|


  H       Q     H.             H       E E   H       E E
|-------------|-8------------|-------------|-------------|
|---------6---|--------------|-----------6-|-------------|
|-8-----------|--------------|-8-------8---|-6-------5-6-|
|-------------|--------------|-------------|-------------|
|-------------|--------------|-------------|-------------|
|-------------|--------------|-------------|-------------|


  E E Q.     E   E E E E E E   Q   Q   E E   H.
|--------------|-------------|-------------|--------------|
|--------------|-------------|-----------6-|--------------|
|-5------------|---------5-6-|-5---8---8---|-8------------|
|---8-6--------|-6---6-8-----|-------------|--------------|
|------------6-|---6---------|-------------|--------------|
|--------------|-------------|-------------|--------------|


  H       E E   H       E  E    a  H.              E S S E E  E E
|-----------3-|---------8-10-|-10h11------------|-11-9-7-9-7------|
|-4-----------|-6------------|------------------|------------11-9-|
|---------3---|--------------|------------------|-----------------|
|-------------|--------------|------------------|-----------------|
|-------------|--------------|------------------|-----------------|
|-------------|--------------|------------------|-----------------|


  a  Q   E E  E E   Q   S S E E S S   H       +E  E   E E E E S S E
|-----------------|-----------------|---------------|---------------|
|-9h11---9-8----8-|-6---6h8-9-8-6h8-|---------------|-------------6-|
|------------10---|-----------------|-8-------(8)---|-5-7-8-7-7h8---|
|-----------------|-----------------|-------------8-|---------------|
|-----------------|-----------------|---------------|---------------|
|-----------------|-----------------|---------------|---------------|


  E E E E S S E   Q.     Q   E   H.             Q   E E E E
|---------------|--------3-----|-4------------|-4---6-6-4---|
|---------4h6s8-|-8----------6-|--------------|-----------6-|
|-8---8-8-------|--------------|--------------|-------------|
|---5-----------|--------------|--------------|-------------|
|---------------|--------------|--------------|-------------|
|---------------|--------------|--------------|-------------|


  H       E E   E E E E E E   H.             E E E E E E
|-3-----------|-------------|--------------|-------------|
|---------4-6-|-6-4-3-4-3---|--------------|---3-4-6s8-6-|
|-------------|-----------3-|-5------------|-5-----------|
|-------------|-------------|--------------|-------------|
|-------------|-------------|--------------|-------------|
|-------------|-------------|--------------|-------------|


  H.             H       E E   H        E E   H        E E
|--------------|-------------|-3--------3-4-|------------3-|
|-4------------|---------4-6-|--------------|-6--------6---|
|--------------|-------------|--------------|--------------|
|--------------|-------------|--------------|--------------|
|--------------|-------------|--------------|--------------|
|--------------|-------------|--------------|--------------|


  H       E E   Q   E E E S S   Q   E Q.       H       Q
|-------------|---------4-----|--------------|-------------|
|-4---------4-|-6---6-8---6h8-|-8---6-4------|-------------|
|---------3---|---------------|--------------|-3-----------|
|-------------|---------------|--------------|-------------|
|-------------|---------------|--------------|-------------|
|-------------|---------------|--------------|-------------|


  H.             Q   Q   Q     Q   Q   E E   a E E H
|--------------|---------4---|-----6---4---|---------------|
|-4------------|-1---3---3---|-4---------6-|-6h8-6-4-------|
|--------------|-1---3-------|-3-----------|---------------|
|--------------|-------------|-------------|---------------|
|--------------|-------------|-------------|---------------|
|--------------|-------------|-------------|---------------|


  W             Q   Q   Q     Q   Q   E E   a E E H
|-------------|---------4---|-----6---4---|---------------|
|-------------|-1---3---3---|-4---------6-|-6h8-6-4-------|
|-------------|-1---3-------|-3-----------|---------------|
|-------------|-------------|-------------|---------------|
|-------------|-------------|-------------|---------------|
|-------------|-------------|-------------|---------------|


  Q   E E E E   E S S E E E E   Q.     E E E   a Q   Q   Q
|-------------|-1-2p1---1-----|----------1-2-|-2h4---2-------|
|-----4-4-4-4-|-------4---4-2-|-4------4-----|-----------4---|
|-------------|---------------|--------------|---------------|
|-------------|---------------|--------------|---------------|
|-------------|---------------|--------------|---------------|
|-------------|---------------|--------------|---------------|


  Q.     E E E   Q.     E E E   E E E E E E   E E Q   Q
|-1--------1s3-|-3------4-3-1-|-1-3-------1-|-------------|
|--------4-----|--------------|-----4-3-4---|-4---4-------|
|--------------|--------------|-------------|---3---------|
|--------------|--------------|-------------|-------------|
|--------------|--------------|-------------|-------------|
|--------------|--------------|-------------|-------------|


  Q.     E E E   a E E E Q.       Q.     E E E   H.
|------------1-|-1h2-1----------|----------1---|-3------------|
|-4------2-4---|-------4-2------|-1------4---4-|--------------|
|--------------|----------------|--------------|--------------|
|--------------|----------------|--------------|--------------|
|--------------|----------------|--------------|--------------|
|--------------|----------------|--------------|--------------|


  Q   E E E E   Q   Q   Q     H       E E   H    Q
|-----1-3-3-4-|-4---3---1---|-----------1-|----------|
|-------------|-------------|-4-------4---|-4--------|
|-------------|-------------|-------------|----------|
|-------------|-------------|-------------|----------|
|-------------|-------------|-------------|----------|
|-------------|-------------|-------------|----------|


  Q   E E E E   H.             E E E E E E   E E E E E E
|-------------|--------------|---1-3-4-3-1-|-4-3-1-4-3-1-|
|-----1-2-4-2-|-1------------|-------------|-------------|
|-------------|--------------|-------------|-------------|
|-------------|--------------|-------------|-------------|
|-------------|--------------|-------------|-------------|
|-------------|--------------|-------------|-------------|


  H       E E   H       S S E   H       S S E   Q.     E E E
|-6-------4-3-|-1-------1h3-4-|---------------|------------1-|
|-------------|---------------|-4-------3h4-3-|-1------1-3---|
|-------------|---------------|---------------|--------------|
|-------------|---------------|---------------|--------------|
|-------------|---------------|---------------|--------------|
|-------------|---------------|---------------|--------------|


  Q   E Q.       W             E S S E E E E   E S S E E E  E
|--------------|-------------|---------1---1s|=3---3-4-6-8-11-|
|-4-----1------|-------------|---1-3-4---4---|---6------------|
|-----3--------|-------------|---------------|----------------|
|--------------|-------------|---------------|----------------|
|--------------|-------------|---------------|----------------|
|--------------|-------------|---------------|----------------|


   E  E  E  E E E   E E E E E  E    H        E  E    H.
|-11-10-10-10-8-8-|-8-6-6-6s8-10-|-11-------10-11-|-10------------|
|-----------------|--------------|----------------|---------------|
|-----------------|--------------|----------------|---------------|
|-----------------|--------------|----------------|---------------|
|-----------------|--------------|----------------|---------------|
|-----------------|--------------|----------------|---------------|


   a  H.              E E E E E E   a  Q   E E  E E   a  Q    E E E  E
|-10h11------------|-11-9-7-9-7---|-----------------|-------------------|
|------------------|------------9-|-9h11---9-8------|-----------8-9-----|
|------------------|--------------|------------10-8-|-8h10---10-----10--|
|------------------|--------------|-----------------|-------------------|
|------------------|--------------|-----------------|-------------------|
|------------------|--------------|-----------------|-------------------|


  Q    E Q.      E E E E E E   H.             H.
|--------------|-------------|--------------|------------|
|-8------------|-----6-------|--------------|-6----------|
|-----10-8-----|-5-7---8-7---|-8------------|------------|
|--------------|-----------8-|--------------|------------|
|--------------|-------------|--------------|------------|
|--------------|-------------|--------------|------------|


  H.        Q.       Q.       S  E. +H
|---------|-----------------|----3--(3)----*|
|-8-------|-4--------6------|----4--(4)----*|
|---------|-5--------3------|--------------*|
|---------|-----------------|--------------*|
|---------|-----------------|--------------*|
|---------|-----------------|--------------*|




Guitar 2

  E E E E E E   E E E E E E   E  E E E E E   E E E E E E
|-------------|-------------|--------------|-------------|
|-------6-----|---4---4---4-|--------6-----|-------6-----|
|-----8---8---|-5---3-------|------8---8---|-----8---8---|
|---8-------8-|-6---5---6---|-5--8-------8-|---8-------8-|
|-6-----------|---------6---|-6------------|-6-----------|
|-------------|-------------|--------------|-------------|


  E E E E E E   E E E E E E   E  E E E E E     E  E E E E E
|-------------|-------------|--------------|----------------|
|-------6-----|---4---4---4-|--------6-----|----------6-----|
|-----8---8---|-5---3-------|------8---8---|--------8---8-7-|
|---8-------8-|-6---5---6---|-5--8-------8-|------8-------8-|
|-6-----------|---------6---|-6------------|---6------------|
|-------------|-------------|--------------|----------------|


  E E E E E E   E  E E E E E   E  E E E E E   E E E E E E
|-------------|--------------|--------------|-------------|
|-------4-----|--------4-----|--------4-----|-------4-----|
|-----6---6---|------6---6---|------6---6---|-----6---6---|
|---6-------6-|----6-------6-|----6-------6-|---6-------6-|
|-4-----------|-4------------|-4------------|-4-----------|
|-------------|--------------|--------------|-------------|


  E E E E E E   E  E E E E E   E  E E E E E   E  E E E E E
|-------------|--------------|--------------|--------------|
|-------6-----|--------8-----|--------6-----|--------8-----|
|-------------|------8---8---|------8---8---|------8---8---|
|---6-8---8-5-|----8-------8-|----8-------8-|----8-------8-|
|-6-----------|-6------------|-6------------|-6------------|
|-------------|--------------|--------------|--------------|


  E E E E E E   E E E E E E   E E E E E E   E E E E E E
|-------------|-------------|-------------|-------------|
|-------4-----|-------4-----|-------4-----|-------4-----|
|-----6---6---|-----6---6---|-----6---6---|-----6---6---|
|---6-------6-|---6-------6-|---6-------6-|---6-------6-|
|-4-----------|-4-----------|-4-----------|-4-----------|
|-------------|-------------|-------------|-------------|


    E E E  E E E   E E E E E E   E  E E E E E   E  E E Q.
|----------------|-------------|--------------|-------------|
|----------4-----|-------4-----|--------4-----|--------4----|
|-------5----5---|-----5---5---|------5---5---|------5------|
|-----5--------5-|---5-------5-|----5-------5-|----5--------|
|---3------------|-3-----------|-3------------|-3-----------|
|----------------|-------------|--------------|-------------|


  E E E E E E   E  E E E E E   E E E E E E   E E E E E E
|-------------|--------------|-------------|-------------|
|-------4-----|--------4-----|-------2-----|-------2-----|
|-----6---6---|------6---6---|-----3---3---|-----3-------|
|---6-------6-|----6-------6-|---3-------3-|---3---------|
|-4-----------|-4------------|-1-----------|-1-------3-4-|
|-------------|--------------|-------------|-------------|


  E E E  E E E   E E E E E E   E E E E E E   E  E E E E E
|--------------|-------------|-------------|--------------|
|--------------|-------4-----|-------------|----------3-4-|
|--------5-----|-----5---5---|---5-5---5-5-|--------5-----|
|-----6------6-|-6-6-------6-|-------6-----|------6-------|
|---6------6---|-------------|-------------|----6---------|
|-4------------|-------------|-4-----------|-4------------|


  E E E E E E   E E E E E  E       E  E E E E E    E E   E E  E E
|-------------|--------------|------------------|-----------------|
|-------8-----|-6---6-8----6-|------------4-----|--------4------6-|
|-----8-----8-|--------------|----------6---6---|--------4------6-|
|---8-----8---|---8-----8----|--------6-------6-|----4--------6---|
|-6-----------|--------------|-----4------------|--2-------4------|
|-------------|--------------|------------------|-----------------|


     E E E E  E E   E E E   E E E     E E E E  E  E   E E E E S S E
|----------6------|---------6-------|---------------|---------------|
|-----------------|-6---6-----------|---------------|---------------|
|--------8------8-|-------------7---|-8---5-7--8----|-----5---------|
|------8------8---|---8-------8-----|---5---------5-|---6---------8-|
|----6------------|-----------------|---------------|---------6h8---|
|-----------------|-----------------|---------------|-4-----6-------|


  E E E E E   E   E  E E E E E   E  E E E E E   E E E E E E
|-------6-------|--------3-----|--------------|-------------|
|-------------4-|-6----6-----6-|--------4-----|-------------|
|-----3---3-----|----3-----3---|------6-----6-|-----4-----6-|
|---5-----------|--------------|----6-----6---|---4-----6---|
|-6-------------|--------------|-4------------|-2-----4-----|
|---------------|--------------|--------------|-------------|


  E E E E E E   E E E E E E   E  E E E E E   E E E E E E
|-------------|-------------|--------------|-------------|
|-------8-----|-6-----------|--------4---3-|-------------|
|-----8-----8-|-----7-8-----|------5---5---|-------------|
|---8-----8---|---8-----8-8-|----5---------|-------------|
|-6-----------|-------------|-3------------|-------------|
|-------------|-------------|--------------|-4-4-4-6-6-6-|


  E  E E E E E   E E E E E E   E E E Q.       E E E Q.
|--------------|-------------|--------------|--------------|
|--------4-----|-------4-----|-------4------|--------------|
|------3---3---|-----3---3---|-----5--------|-------7------|
|----5-------5-|---5-------5-|---6----------|-----8--------|
|-6------------|-6-----------|--------------|---8----------|
|--------------|-------------|-4------------|-6------------|


  E E E E E E   E E E E E E     E E E E  E E   E E E E E E
|-------------|---------------|--------------|-------------|
|-------8-----|-------8-------|-------8------|-------8-----|
|-----8---8---|-----8---8-----|-----8----8---|-----8---8---|
|---8-------8-|---8-------8---|---8--------8-|---8-------8-|
|-6-----------|-6-------------|-6------------|-6-----------|
|-------------|---------------|--------------|-------------|


  E  E E E E E   E E E E E E   E E E E E E     E E E E E E
|--------------|-------------|-------------|---------------|
|--------6-----|---4---4---4-|-------6-----|---------6-----|
|------8---8---|-5---3-------|-----8---8---|-------8---8---|
|----8-------8-|-6---5---6---|-5-8-------8-|-----8-------8-|
|-6------------|---------6---|-6-----------|---6-----------|
|--------------|-------------|-------------|---------------|


  E E E E E E   E E E E E E   E E E E E E     E E E E E E
|-------------|-------------|-------------|---------------|
|-------6-----|---4---4---4-|-------6-----|---------6-----|
|-----8---8---|-5---3-------|-----8---8---|-------8---8-7-|
|---8-------8-|-6---5---6---|-5-8-------8-|-----8-------8-|
|-6-----------|---------6---|-6-----------|---6-----------|
|-------------|-------------|-------------|---------------|


  E E E E E E   E E   E E E E   E  E E E E E     E E E E E E
|-------------|---------------|--------------|---------------|
|-------4-----|---------4-----|--------4-----|---------4-----|
|-----6---6---|-------6---6---|------6---6---|-------6---6---|
|---6-------6-|---6---------6-|----6-------6-|-----6-------6-|
|-4-----------|-4-------------|-4------------|---4-----------|
|-------------|---------------|--------------|---------------|


  E  E E E E E   E  E E E E E   E E E E E E   E E E E E E
|--------------|--------------|-------------|-------------|
|--------4-----|--------6-----|-------3-----|-------4-----|
|------3---3---|------3---3---|-----3---3---|-----3---3---|
|----5-------5-|----5-------5-|---5-------5-|---5-------5-|
|-6------------|-6------------|-6-----------|-6-----------|
|--------------|--------------|-------------|-------------|


  E  E E E E E     E E E E  E E   E  E E E E E   E  E E E E E
|--------------|----------------|--------------|--------------|
|--------4-----|---------4------|--------4-----|--------4-----|
|------6---6---|-------6----6---|------5---5---|------5---5---|
|----6-------6-|-----6--------6-|----5-------5-|----5-------5-|
|-4------------|---4------------|-3------------|-3------------|
|--------------|----------------|--------------|--------------|


  E E E E E E   E E E E E E   E E E E E E   H    E E
|-------------|-------------|-------------|----------|
|-----2-4-2---|-----2-4-2---|-------------|-4--------|
|-------------|-------------|-------5-----|----------|
|---3-------3-|---3-------3-|-----6-----6-|----------|
|-1-----------|-1-----------|---6-----6---|----------|
|-------------|-------------|-4-----------|------4-6-|


  E E E E E E   E  E E E E E   E E E E E E   E E E E E E
|-------------|------------3-|-------4-----|-4-----4-----|
|-------6-----|-5------5-6---|-----6-----6-|-----6-----3-|
|-----5-----5-|------5-------|---5-----5---|---5-----5---|
|---5-----5---|----5---------|-3-----------|-------------|
|-3-----------|--------------|-------------|-------------|
|-------------|--------------|-------------|-------------|


  E E E E E E   E E E E E   E   E E E E E   E   E  E E E E E
|-------------|---------3---4-|-3-------------|--------------|
|-------3-----|-4-----4-------|-------4-------|--------4-3---|
|-----3-----3-|-----3---------|-----5-------5-|------5-----3-|
|---3-----3---|---3-----------|---5-----5-----|----5---------|
|-1-----------|---------------|---------------|-3------------|
|-------------|---------------|---------------|--------------|


  E E E E  E E   E E E E E E   E E   E E E E   E E   E E E  E
|--------------|-------------|---------4-----|-3-------4------|
|--------------|---------4-6-|-------6-----6-|-------6------4-|
|-------5------|-----5-7-----|---------------|---5-------5----|
|-----6----6---|---6---------|-3-6-------3---|----------------|
|---6--------6-|-------------|---------------|----------------|
|-4------------|-4-----------|---------------|----------------|


   E  E  E  E E E   E E E E E  E    E E E E  E  E    E  E E E E E
|-----------------|-------1-3--4-|----------------|---------------|
|-----------3-----|-4------------|--------8-------|-------6-8-6---|
|--------3------3-|-----3--------|------8-------8-|---------------|
|-----3-------3---|---3----------|----8------8----|-----8-------8-|
|--1--------------|--------------|--6-------------|--5------------|
|-----------------|--------------|----------------|---------------|


      E  E E E E E    E E E E E E      E E E E  E E      E E  E E E  E
|------------------|--------------|-----------------|-----------4-------|
|------------4-----|--------------|----------8------|---------6---6-----|
|----------6---6---|------4-----6-|--------8------8-|------3---------3--|
|--------6-------6-|----4-----6---|------8------8---|-------------------|
|-----4------------|--2-----4-----|----6------------|----5--------------|
|------------------|--------------|-----------------|-------------------|


  E E  E Q   E   E E E E E E   E  E E E E E   Q.   E E E
|--------------|-------------|--------------|------------|
|--------4-----|-------------|--------4-----|----------3-|
|------5-------|-------------|------3---3---|--------3---|
|---5----------|-----6-----8-|----5-------5-|------3-----|
|-3------------|---6-----8---|-6------------|-5----------|
|--------------|-4-----6-----|--------------|------------|


  H.        E  E S S E  E E   S  E. +H
|---------|-----------------|--------------*|
|-4-------|------3----------|----4--(4)----*|
|---------|----5---3------3-|----3--(3)----*|
|---------|-------------3---|--------------*|
|---------|-3--------5------|-6-(6)-(6)----*|
|---------|-----------------|--------------*|

h - hammer on
p - pull off

W - whole 
H - half 
Q - quarter 
E - 8th
S - 16th
a - acciaccatura
+ - note tied to previous
. - note dotted
Login or Register to remove this ad.

4 comments on Daydreaming Again (Pot Hocket)

Thank you for tabbing this.

5

Thank you for tabbing this. Really beautiful tune.

I can't thank you enough for

I can't thank you enough for tabbing this. Pot Hocket is an incredible guitarist.

Good tabbing work !!!!!!!

5

Good tabbing work !!!!!!! XD

It's a very sweet arrangement... in fact it's completely Pot Hocket's style ^^

This is nice. It would be

This is nice.

It would be pretty awesome if someone were to manage to turn it into a solo.