Costa Del Sol (SongeLeReveur Version) (Final Fantasy VII) Bass/Guitar Tab

Submitted: Sep 11, 2010 by ForestMarth (Last updated: Sep 22, 2010)

0
Download | Listen
Game: Final Fantasy VII
Composer(s): Nobuo Uematsu
Style: 2 or more instruments, Arrangement, Transcription
Series: Final Fantasy

AutoScroll: Slow | Medium | Fast
                                Costa Del Sol

Composed by : Nobuo Uematsu

Arranged by : SongeLeReveur

Tabbed by : ForestMarth

Platform : PlayStation


I'm sorry but rythm is not respected (here and in the Guitar Pro file).
Don't hesitate to take this tab and put it rythm ! :-)
Look at SongeLeReveur video to hear the rythm.




Guitar



        
E||---------------------------------------------------------------------
B||--8----8---------8--7-------7--7---------7------8----8---------8--7--
G||--5----5---------5--5-------5--5---------5------5----5---------5--5--
D||--7----7---------7--7-------7--7---------7------7----7---------7--7--
A||-------------------------5----------5--------------------------------
E||--5---------5-----------------------------------5---------5----------


       
-------------------------------------------------------------------
-----7--7---------7------8----8----8----7------7----7----7---------
-----5--5---------5------5----5----5----5------5----5----5---------
-----7--7---------7------7----7----7----7------7----7----7---------
--5----------5-----------------------------------------------------
-------------------------------------------------------------------


       
------------------------------------------------------------------
--8----8----8----7------7----7----7-----------8----8----8----7----
--5----5----5----5------5----5----5-----------5----5----5----5----
--7----7----7----7------7----7----7-----------7----7----7----7----
------------------------------------------------------------------
------------------------------------------------------------------


       
------------------------------------------------------------------
--7----7----7-----------8----8----8----7------7----7----7---------
--5----5----5-----------5----5----5----5------5----5----5---------
--7----7----7-----------7----7----7----7------7----7----7---------
------------------------------------------------------------------
------------------------------------------------------------------


       
------------------------------------------------------------------
--6----6----6----5------5----5----5-----------6----6----6----5----
--3----3----3----3------3----3----3-----------3----3----3----3----
--5----5----5----5------5----5----5-----------5----5----5----5----
------------------------------------------------------------------
------------------------------------------------------------------


       
------------------------------------------------------------------
--5----5----5-----------8----8----8----7------7----7----7---------
--3----3----3-----------5----5----5----5------5----5----5---------
--5----5----5-----------7----7----7----7------7----7----7---------
------------------------------------------------------------------
------------------------------------------------------------------


       
------------------------------------------------------------------
--8----8----8----7------7----7----7-----------6----6----6----5----
--5----5----5----5------5----5----5-----------3----3----3----3----
--7----7----7----7------7----7----7-----------5----5----5----5----
------------------------------------------------------------------
------------------------------------------------------------------


       
------------------------------------------------------------------
--5----5----5-----------6----6----6----5------5----5----5---------
--3----3----3-----------3----3----3----3------3----3----3---------
--5----5----5-----------5----5----5----5------5----5----5---------
------------------------------------------------------------------
------------------------------------------------------------------


  ^                           ^                          
       
--5----10---------------------5----10-------------------
--5--------11--10-------------5--------11--10-----------
--5----------------10---------5----------------10-------
--3---------------------------3-------------------------
--------------------------------------------------------
--------------------------------------------------------


  ^                          ^                                                 
     
--7----8g9-------------------7----7g9----------------------------------------
--7---------10--8------------7---------10--8------------8----8---------8--7--
--7----------------9---------7----------------9---------5----5---------5--5--
--5--------------------------5--------------------------7----7---------7--7--
-----------------------------------------------------------------------------
--------------------------------------------------------5---------5----------


       
---------------------------------------------------------------------
-----7--7---------7------8----8---------8--7-------7--7---------7----
-----5--5---------5------5----5---------5--5-------5--5---------5----
-----7--7---------7------7----7---------7--7-------7--7---------7----
--5----------5----------------------------------5----------5---------
-------------------------5---------5---------------------------------


  ^    ^                                                                      
     
--7----5----6g7--7--5------5----8----5-----------8g7---7---5----5-------5--
--5----5----4g5--5--5------5---------5-----------6g5---5---5----5-------4--
--5----5----4g5--5--5------5---------5-----------6g5---5---5----5-------5--
--5----4----4g5--5--4------5---------4-----------6g5--(5)-------4----4-----
---------------------------------------------------------------------------
---------------------------------------------------------------------------


     
--5--3--4g5---5---3--------5---------------0--------------
--3--3--2g3---3---3--------3----------(3)-----3-----------
--3--3--2g3---3---3------3---------5-------------5-----5--
--3--2--2g3--(3)--2----2--------5-------------------4-----
----------------------------------------------------------
----------------------------------------------------------


      
-------0----------------------------------0--------------
--(3)-----3--------------------------(3)-----3-----------
-------------5-----(5)------------5-------------5-----5--
----------------4--------------5-------------------4-----
---------------------------------------------------------
---------------------------------------------------------


      
-------0----------------------------------0--------------
--(3)-----3--------------------------(1)-----1-----------
-------------5-----(5)------------3-------------3-----3--
----------------4--------------3-------------------2-----
---------------------------------------------------------
---------------------------------------------------------


      
-------0----------------------------------0--------------
--(1)-----1--------------------------(1)-----1-----------
-------------3-----(3)------------3-------------3-----3--
----------------2--------------3-------------------2-----
---------------------------------------------------------
---------------------------------------------------------


                            ^                          
        
-------0--------------------5----10-------------------
--(1)-----1-----------------5--------11--10-----------
-------------3--------------5----------------10-------
----------------2-----------3-------------------------
------------------------------------------------------
------------------------------------------------------


  ^                           ^                         
       
--5----10---------------------7----8g9-----------------
--5--------11--10-------------7---------10--8----------
--5----------------10---------7----------------9-------
--3---------------------------5------------------------
-------------------------------------------------------
-------------------------------------------------------


  ^                                          
                        
--7----7g9-----------------|
--7---------10--8----------|
--7----------------9-------|
--5------------------------|
---------------------------|
---------------------------|




Bass



        
G||----------------------------------------------------
D||----------------------------------------------------
A||--------------5--5--5-------------------------5--5--
E||--5--5--5--5-----------2----3--4--5--5--5--5--------


     
---------------------------------------------------------------------------
---------------------------------------------------------------------------
--5--5--5----------------------------5--5--5-------------------------5--5--
-------------------------5--5--5--5-----------2----3--4--5--5--5--5--------


       
-----------------------------------------------------------------------------
-----------------------------------------------------------------------------
--5--------------------3----3--3-------------------------3--3--3--1----------
-----5--4--3--3--3--3-------------0--1--2--3--3--3----3----------------------


     
----------------------------------------------------
----------------------------------------------------
--------------5--5--5-------------------------5--5--
--5--5--5--5-----------2----3--4--5--5--5--5--------


       
-----------------------------------------------------------------------------
-----------------------------------------------------------------------------
--5--------------------3----3--3-------------------------3--3--3-------------
-----5--4--3--3--3--3-------------0--1--2--3--3--3----3-----------3----------


     
-----------------------------------------------------
-----------------------------------------------------
--------------1--1--1--1-3---------------1--1--1-----
--1--1--1--1-----------------1--1--1--1-----------1--


       
---------------------------------------------------
---------------------------------------------------
---------------------------------------------------
--3--3--3--3--5--5--5--5----3--3--3--3--5--5-------


      
------------------12----14g16------17--16----------------------21--
--------------14---------------------------17--19-------18g19------
--12--14--15-------------------------------------------------------
-------------------------------------------------------------------


      
------19-------------------------------------------------------
--17------17--18--19--16--17--16-------------------------------
---------------------------------------------------5--5--5-----
---------------------------------17\---5--5--5--5-----------2--


     
-----------------------7----------------------------
----------------------------7--5--6--7--------------
--------------------5-------------------7--7--------
--3--4--5--5--5--5----------------------------7--5--


    
----------------------------------------------------
----------------------------------------------------
--5--5--5-------------------------5--5--5-----------
-----------2--3--4--5--5----5--5-----------5--4--3--


           
-----------------------------------------------------------------------------
--5--5------------------------------------------5----------------------------
--------5--x--3--1--3--3-------------5--5--(5)-----5----3--3--3--------------
----------------------------1--2--3------------------------------3-----------


     
----------------------------------------------------
----------------------------------------------------
--------------5--5--5-------------------------5--5--
--5--5--5--5-----------2----3--4--5--5--5--5--------


       
----------------------------5--5---------------------------------------------
-----------5--5-------------------3--4--5--5--5------------------------------
--5--------------5--4--3-------------------------5----x--3--3--3-------------
-----5--3---------------------------------------------------------3--x-------


    
---------------------------------------------------------
---------------------------------------------------------
--------------1--1--1-1-1-3---------------1--1--1--1S-10-
--1--1--1--1------------------1--1--1--1-----------------


                
----------------------14------------------------------------16----|
------12--12--------------12--14--------12--12----------14--------|
--10----------10--12----------------10----------10--12------------|
------------------------------------------------------------------|




Ocarina



           
E||--------12----10-------------------------------------------------------
B||--13-----------------------8----9----10----------------8----10---------
G||--------------------------------------------------9--------------------
D||-----------------------------------------------------------------------
A||-----------------------------------------------------------------------
E||-----------------------------------------------------------------------


        
-------------------8------10----------------------------------------------
--10----8----10-----------------10---------10------13----12----11---------
--------------------------------------------------------------------------
--------------------------------------------------------------------------
--------------------------------------------------------------------------
--------------------------------------------------------------------------


        
----------------------------------------------------------------------10----
---------------------------------10----11-----------10----11----13----------
--10----11----12-----------12-----------------------------------------------
----------------------------------------------------------------------------
----------------------------------------------------------------------------
----------------------------------------------------------------------------


        
--13----12---------------------12----10--------------------------------
-------------------------13-----------------------8----9----10---------
-----------------------------------------------------------------------
-----------------------------------------------------------------------
-----------------------------------------------------------------------
-----------------------------------------------------------------------


       
------------------------------------------8------10---------------------
-------8----10-----------10----8----10-----------------10---------10----
--9---------------------------------------------------------------------
------------------------------------------------------------------------
------------------------------------------------------------------------
------------------------------------------------------------------------


        
---------------------------------------------------------------------------
--13----12----11------------------------------------------10----11---------
---------------------------10----11----12-----------12---------------------
---------------------------------------------------------------------------
---------------------------------------------------------------------------
---------------------------------------------------------------------------


        
--------------------10------13----12-----------------------------------
--10----11----13-------------------------------------------------------
---------------------------------------------------9----7----9---------
-----------------------------------------------------------------------
-----------------------------------------------------------------------
-----------------------------------------------------------------------


       
------------------------------------------------------------------------
--8----------------------------------------------10---------------------
-------10----9-----------9----10----11-----------------12----11---------
------------------------------------------------------------------------
------------------------------------------------------------------------
------------------------------------------------------------------------


                 
-----------------------------------------------------
--------13--12--10------12------------10-------------
--------------------------------12-------------------
--10-------------------------------------------------
-----------------------------------------------------
-----------------------------------------------------


        
--------12----10-------------------------------------------------------
--13-----------------------8----9----10----------------8----10---------
--------------------------------------------------9--------------------
-----------------------------------------------------------------------
-----------------------------------------------------------------------
-----------------------------------------------------------------------


        
-------------------8------10----------------------------------------------
--10----8----10-----------------10---------10------13----12----11---------
--------------------------------------------------------------------------
--------------------------------------------------------------------------
--------------------------------------------------------------------------
--------------------------------------------------------------------------


        
----------------------------------------------------------------------10----
---------------------------------10----11-----------10----11----13----------
--10----11----12-----------12-----------------------------------------------
----------------------------------------------------------------------------
----------------------------------------------------------------------------
----------------------------------------------------------------------------


        
--13----12---------------------12----10--------------------------------
-------------------------13-----------------------8----9----10---------
-----------------------------------------------------------------------
-----------------------------------------------------------------------
-----------------------------------------------------------------------
-----------------------------------------------------------------------


       
------------------------------------------8------10---------------------
-------8----10-----------10----8----10-----------------10---------10----
--9---------------------------------------------------------------------
------------------------------------------------------------------------
------------------------------------------------------------------------
------------------------------------------------------------------------


        
---------------------------------------------------------------------------
--13----12----11------------------------------------------10----11---------
---------------------------10----11----12-----------12---------------------
---------------------------------------------------------------------------
---------------------------------------------------------------------------
---------------------------------------------------------------------------


        
--------------------10------13----12-----------------------------------
--10----11----13-------------------------------------------------------
---------------------------------------------------9----7----9---------
-----------------------------------------------------------------------
-----------------------------------------------------------------------
-----------------------------------------------------------------------


        
------------------------------------------------------------------------|
--8----------------------------------------------10---------------------|
-------10----9-----------9----10----11-----------------12----11---------|
------------------------------------------------------------------------|
------------------------------------------------------------------------|
------------------------------------------------------------------------|




Tablature Legend
----------------
L - tied note
x - dead note
g - grace note
(n) - ghost note
> - accentuded note
NH - natural harmonic
AH - artificial harmonic
TH - tapped harmonic
SH - semi harmonic
PH - pitch harmonic
h - hammer on
p - pull off
b - bend
br - bendRelease
pb - preBend
pbr - preBendRelease
brb - bendReleaseBend
\n/ - tremolo bar dip
\n - tremolo bar dive
-/n - tremolo bar Release up
/n\ - tremolo bar inverted dip
/n - tremolo bar return
-\n - tremolo bar Release down
S - shift slide
s - legato slide
/ -  slide into from below or out of upwards
\ -  slide into from above or out of downwards
~ - vibrato
W - wide vibrato
tr - trill
TP - tremolo picking
T - tapping
S - slap
P - pop
< - fade in
^ - brush up
v - brush down
Login or Register to remove this ad.