Ads

Cosmo Canyon (Final Fantasy VII) Guitar Tab

Submitted: May 03, 2020 by guitarsvd (Last updated: May 08, 2020)

5
Average: 5 (1 vote)
Download | No audio :(
Game: Final Fantasy VII
Composer(s): Nobuo Uematsu
Style: Arrangement, Fingerstyle, Percussion
Series: Final Fantasy

Click here for a video example.

AutoScroll: Slow | Medium | Fast
Title: Cosmo Canyon
SubTitle: Final Fantasy VII
Artist: Cecil Chau (GuitarSVD)
Music: Nobuo Uematsu
Tempo = 60
Nylon Guitar

Legend
L - tied note
x - dead note
h - hammer on/pull off
b - bend
s - slide
~ - vibrato
g - ghost note
> - accentuated note
t - trill
M - palm mute
. - staccato
P - popping (bass)
S - slapping (bass)
+ - tapping
W - wide vibrato
< - fade in
w - whammy bar
= - tremolo picking
v - brush up
^ - brush down
V - pick stroke up
n - pick stroke down


E |----------------------------------------------------|
B |--------------x-------------------------------------|
G |--------------x-------------------------------------|
D |----------------------------------------------------|
A |--x--x--------x-----------x-----------x-------------|
E |--x--x--x--x--x-----x--x--x-----x--x--x-----x--x----|


----------------------------------------------------|
--------------x-------------------------------------|
--------------x-------------------------------------|
----------------------------------------------------|
--x-----------x-----------x-----------x-------------|
--x--x--x--x--x-----x--x--x-----x--x--x-----x--x----|


----------------------------------------------------|
----------------------------------------------------|
--x-----------x-------------------------------------|
--x-----------x--x-----x--x-------------------------|
--5h-7--7--7--7-----x-----x-----x--x--------5-------|
--0-----------0-----------x-----------7-------------|


----------------------------------------------------|
----------------------------------------------------|
--x-----------x-------------------------------------|
--x-----------x--x-----x--x-----------x-------------|
--5h-7--7--7--7-----x-----x-----x--x--x-----x--x----|
--0-----------0-----------x-----------x-------------|


----------------------------------------------------|
--x-----------x-------------------------------------|
--x-----------x--x-----x--x-------------------------|
--5h-7--7--7--7-----x-----x-----x--x----------------|
--0-----------0-----------x-----------------5-------|
--------------------------------------7-------------|


----------------------------------------------------|
----------------------------------------------------|
--x-----------x-------------------------------------|
--x-----------x--x-----x--x-----------x-------------|
--5h-7--7--7--7-----x-----x-----x--x--x-----x--x----|
--0-----------0-----------x-----------x-------------|


----------------------------------------------------|
----------------------------------------------------|
--x-----------x-------------------------------------|
--x-----------x--x-----x--x-----------x-------------|
--5h-7--7--7--7-----x-----x-----x--x--x-----x--x----|
--0-----------0-----------x-----------x-------------|


--------------------------------------------------------------------------------
--------------------------------------------------------------------------------
-----------------------------0L-------0--0--2--0--------------------------------
--2-----2-----2--------0--2-----------------------------------------------------
--------------------------------------------------------------------------------
--------------------------------------------------0--x--x--x--0--x--x--x--0--x--


--------------------|
--------------------|
--------------------|
--------------------|
--------------------|
x--x--0--x--x--x----|


--------------------------------------------------------------------------------
--0-----0-----0--------------0L-0-----------------------------------------------
-----------------2--0--2L-2-----------------------------------------------------
--------------------------------------------------------------------------------
--------------------------------------------------------------------------------
--------------------------------------------------3--x--x--x--3--x--x--x--3--x--


--------------------|
--------------------|
--------------------|
--------------------|
--------------------|
x--x--3--x--x--x----|


--------------------------------------------------------------------------------
-----------------0--------------------------------------------------------------
--2-----2--0--2-----------0-----------------------------------------------------
-----------------------------2--2L----2-----0-----------------------------------
--------------------------------------------------0--x--x--x--0--x--x--x--0--x--
--------------------------------------------------------------------------------


--------------------|
--------------------|
--------------------|
--------------------|
x--x--0--x--x--x----|
--------------------|


--------------------------------------------------------------------------------
--------------------------------------------------------------------------------
--0-----------------------------------------------------------------------------
-----2--0--2L-2-----------------------------------------------------------------
--------------------------------------------------------------------------x-----
--------------------------------------------------0--x--x--x--0-----x--x--0-----


--------------------|----------------------------------------------------|
--------------------|--------------------------------------0-----3-------|
--------------------|--x-----------x-------------------------------------|
--------------------|--x-----------x-----------x-------------------------|
------------5-------|--5h-7--7--7--7-----x--x--x-----x--x----------------|
x--x--7-------------|--0-----------0-----------x-------------------------|


--0-----0-----0-----------0--3L-------3--3--5--3--------------------------------
-----------------------3--------------------------------------------------------
--------------------------------------------------------------------------------
--------------------------------------------------------------------------------
--------------------------------------------------------------------------------
--------------------------------------------------0--x--x--x--0--x--x--x--0--x--


--------------------|
--------------------|
--------------------|
--------------------|
--------------------|
x--x--0--x--x--x----|


--7-----7-----7--5--3--5L-5--7L-7-----------------------------------------------
--------------------------------------------------------------------------------
--------------------------------------------------------------------------------
--------------------------------------------------------------------------------
--------------------------------------------------------------------------------
--------------------------------------------------3--x--x--x--3--x--x--x--3--x--


--------------------|
--------------------|
--------------------|
--------------------|
--------------------|
x--x--3--x--x--x----|


--5-----5--3--5--7--------3--0--0L----0-----------------------------------------
--------------------------------------------3-----------------------------------
--------------------------------------------------------------------------------
--------------------------------------------------------------------------------
--------------------------------------------------0--x--x--x--0--x--x--x--0--x--
--------------------------------------------------------------------------------


--------------------|
--------------------|
--------------------|
--------------------|
x--x--0--x--x--x----|
--------------------|


--3--0-----0L-0-----------------------------------------------------------------
--------3-----------------------------------------------------------------------
--------------------------------------------------------------------------------
--------------------------------------------------------------------------------
--------------------------------------------------------------------------x-----
--------------------------------------------------0--x--x--x--0-----x--x--0-----


--------------------|----------------------------------------------------|
--------------------|----------------------------------------------------|
--------------------|--x-----------x-------------------------------------|
--------------------|--x-----------x-----------x-------------------------|
------------5-------|--5h-7--7--7--7-----x--x--x-----x--x--------5-------|
x--x--7-------------|--0-----------0-----------x-----------7-------------|


----------------------------------------------------|
--------------------------------------0-----3-------|
--x-----------x-------------------------------------|
--x-----------x-----------x-------------------------|
--5h-7--7--7--7-----x--x--x-----x--x----------------|
--0-----------0-----------x-------------------------|


--0-----0-----0--2-----0--------------------------------------------------------
--------------------------3-----------0-----3-----------------------------------
--------------------------------------------------------------------------------
--------------------------------------------------------------------------------
--------------------------------------------------------------------------2--x--
--------------------------------------------------0--x--x--x--0-----x--x--------


--------------------|
--------------------|
--------------------|
--------------------|
x--x--2--x--2--x----|
--------------------|


--0-----0-----3--2-----0--------------------------------------------------------
--------------------------3-----------------------------------------------------
--------------------------------------------------------------------------------
--------------------------------------------------------------------------------
--------------------------------------------------------------------------2--x--
--------------------------------------------------0--x--x--x--0-----x--x--------


--------------------|
--------------------|
--------------------|
--------------------|
x--x--2--x--x--x----|
--------------------|


--------------------------------------------------------------------------------
-----------------0--------1-----1--0--1--3--------------------------------------
--2-----2--0--2-----------------------------------------------------------------
--------------------------------------------------------------------------------
--------------------------------------------------3--x--x--x--3--x--x--x--0--x--
--------------------------------------------------------------------------------


--------------------|
--------------------|
--------------------|
--------------------|
x--x--0--x--x--x----|
--------------------|


--------------------7--10---------------------------------------------------|
--0-------------------------------------------------------------------------|
----------------------------------------------------------------------------|
----------------------------------------------------------------------------|
-----------------------------------------------0--2--x--x--x--2--x--x--x----|
--------------------------3--x--x--x--3--x--3-------------------------------|


--12----12----12-14----12-10----------7-----10----------------------------------
--------------------------------------------------------------------------------
--------------------------------------------------------------------------------
--------------------------------------------------------------------------------
--------------------------------------------------------------------------------
--------------------------------------------------0--x--x--x--0-----x--x--7--x--


--------------------|
--------------------|
--------------------|
--------------------|
--------------------|
x--x--7--x--x--x----|


--12----12----15-14----12-10----------------------------------------------------
--------------------------------------------------------------------------------
--------------------------------------------------------------------------------
--------------------------------------------------------------------------------
--------------------------------------------------------------------------------
--------------------------------------------------0--x--x--x--0-----x--x--7--x--


--------------------|
--------------------|
--------------------|
--------------------|
--------------------|
x--x--7--x--x--x----|


--5-----5--3--5--7--------8-----8--7--8--10-------------------------------------
--------------------------------------------------------------------------------
--------------------------------------------------------------------------------
--------------------------------------------------------------------------------
--------------------------------------------------3--x--x--x--3--x--x--x--0--x--
--------------------------------------------------------------------------------


--------------------|--12L--------------------------------------------------|
--------------------|-------------------------------------------------------|
--------------------|-------------------------------------------------------|
--------------------|-------------------------------------------------------|
x--x--0--x--x--x----|-------------------------------------------------------|
--------------------|-----8--x--x--x--8--x--x--x--8--x--x--x--8--x--x--x----|


--12----------------------------------15-12----12L------------------------------
--------------------------------------------------------------------------------
--------------------------------------------------------------------------------
--------------------------------------------------------------------------------
--------------------------------------------------------------------------------
--------------------------------------------------8--x--x--x--8--x--x--x--8--x--


--------------------|--12-12---------------------------------------------------||
--------------------|----------------------------------------------------------||
--------------------|----------------------------------------------------------||
--------------------|----------------------------------------------------------||
--------------------|----------------------------------------------------------||
x--x--8--x--x--x----|--------0--x--x--x--0--x--x--x--0-------------------------||

Login or Register to remove this ad.