Ads

Cosmo Canyon (Final Fantasy VII) Guitar Tab

Submitted: Feb 24, 2014 by TheDoomOfAllFires (Last updated: Mar 02, 2014)

5
Average: 5 (3 votes)
Download | Listen
Game: Final Fantasy VII
Composer(s): Nobuo Uematsu
Style: 2 or more instruments, Arrangement
Series: Final Fantasy

AutoScroll: Slow | Medium | Fast
"Cosmo Canyon" - Final Fantasy VII
Composer : Nobuo Uematsu
Arrangement : TheDoomOfAllFires
BPM : 120
Tuning : Standard EADGBE


Guitar #1


E |----------------------------|----------------------------|
B |----------------------------|----------------------------|
G |--------------0-------------|--------------0-------------|
D |--2--------0-----------0----|--2--------0-----------0----|
A |--------2-----------2-------|--------2-----------2-------|
E |--0-------------------------|----------------------------|


----------------------------|----------------------------|
----------------------------|----------------------------|
--------------0-------------|--------------0-------------|
--2--------0-----------0----|--2--------0-----------0----|
--------2-----------2-------|--------2-----------2-------|
--0-------------------------|----------------------------|


----------------------------|----------------------------|
----------------------------|----------------------------|
--------------0-------------|--------------0-------------|
--2--------0-----------0----|--2--------0-----------0----|
--------2-----------2-------|--------2-----------2-------|
--0-------------------------|----------------------------|


----------------------------|----------------------------|
----------------------------|----------------------------|
--------------0-------------|--------------0-------------|
--2--------0-----------0----|--2--------0-----------0----|
--------2-----------2-------|--------2-----------2-------|
--0-------------------------|----------------------------|


----------------------------|----------------------------|
--------------1-------------|--------------1-------------|
--2--------0-----------0----|--2--------0-----------0----|
--------2-----------2-------|--------2-----------2-------|
--0-------------------------|----------------------------|
----------------------------|----------------------------|


----------------------------|----------------------------|
----------------------------|----------------------------|
--------------0-------------|--------------0-------------|
--2--------0-----------0----|--2--------0-----------0----|
--------2-----------2-------|--------2-----------2-------|
--0-------------------------|----------------------------|


----------------------------|----------------------------|
----------------------------|----------------------------|
--------------0-------------|--------------0-------------|
--2--------0-----------0----|--2--------0-----------0----|
--------2-----------2-------|--------2-----------2-------|
--0-------------------------|----------------------------|


----------------------------|----------------------------|
----------------------------|----------------------------|
--------------0-------------|--------------0-------------|
--2--------0-----------0----|--2--------0-----------0----|
--------2-----------2-------|--------2-----------2-------|
--0-------------------------|----------------------------|


----------------------------|----------------------------|
--------------1-------------|--------------1-------------|
--2--------0-----------0----|--2--------0-----------0----|
--------2-----------2-------|--------2-----------2-------|
--0-------------------------|----------------------------|
----------------------------|----------------------------|


----------------------------|----------------------------|
----------------------------|----------------------------|
--------------0-------------|--------------0-------------|
--2--------0-----------0----|--2--------0-----------0----|
--------2-----------2-------|--------2-----------2-------|
--0-------------------------|----------------------------|


----------------------------|----------------------------|
----------------------------|----------------------------|
--------------0-------------|--------------0-------------|
--2--------0-----------0----|--2--------0-----------0----|
--------2-----------2-------|--------2-----------2-------|
--0-------------------------|----------------------------|


----------------------------|----------------------------|
----------------------------|----------------------------|
--------------0-------------|--------------0-------------|
--2--------0-----------0----|--2--------0-----------0----|
--------2-----------2-------|--------2-----------2-------|
--0-------------------------|----------------------------|


----------------------------|----------------------------|
--------------0-------------|--------------0-------------|
-----------0-----------0----|-----------0-----------0----|
--------0-----------0-------|--------0-----------0-------|
----------------------------|----------------------------|
--3-------------------------|--3-------------------------|


----------------------------|----------------------------|
--------------1-------------|--------------1-------------|
--2--------0-----------0----|--2--------0-----------0----|
--------2-----------2-------|--------2-----------2-------|
--0-------------------------|----------------------------|
----------------------------|----------------------------|


----------------------------|----------------------------|
----------------------------|----------------------------|
--------------0-------------|--------------0-------------|
--2--------0-----------0----|--2--------0-----------0----|
--------2-----------2-------|--------2-----------2-------|
--0-------------------------|----------------------------|


----------------------------|----------------------------||
----------------------------|----------------------------||
--------------0-------------|--------------0-------------||
--2--------0-----------0----|--2--------0-----------0----||
--------2-----------2-------|--------2-----------2-------||
--0-------------------------|----------------------------||


---------------------------|----------------------------|
---------------------------|----------------------------|
o------------0-------------|--------------0-------------|
o2--------0-----------0----|--2--------0-----------0----|
-------2-----------2-------|--------2-----------2-------|
-0-------------------------|----------------------------|


----------------------------|----------------------------|
----------------------------|----------------------------|
--------------0-------------|--------------0-------------|
--2--------0-----------0----|--2--------0-----------0----|
--------2-----------2-------|--------2-----------2-------|
--0-------------------------|----------------------------|


----------------------------|----------------------------|
--------------1-------------|--------------1-------------|
--2--------0-----------0----|--2--------0-----------0----|
--------2-----------2-------|--------2-----------2-------|
--0-------------------------|----------------------------|
----------------------------|----------------------------|


----------------------------|---------------------------||
--------------0-------------|---------------------------||
--0--------0-----------0----|--------------2-----------o||
--------0-----------0-------|--------0--4--------0--4--o||
----------------------------|---------------------------||
--3-------------------------|--2------------------------||


----------------------------|----------------------------|
--------------1-------------|--------------1-------------|
--2--------0-----------0----|--2--------0-----------0----|
--------2-----------2-------|--------2-----------2-------|
----------------------------|--0-------------------------|
----------------------------|----------------------------|


----------------------------|----------------------------|
--------------1-------------|----------------------------|
--2--------0-----------0----|--------------0-------------|
--------2-----------2-------|--2--------0-----------0----|
----------------------------|--------2-----------2-------|
----------------------------|--0-------------------------|


----------------------------|----------------------------|
----------------------------|----------------------------|
--------------0-------------|--------------0-------------|
--2--------0-----------0----|--2--------0-----------0----|
--------2-----------2-------|--------2-----------2-------|
----------------------------|--0-------------------------|


----------------------------|-------||
----------------------------|-------||
--------------0-------------|-------||
--2--------0-----------0----|-------||
--------2-----------2-------|-------||
----------------------------|--0----||

__________


Guitar #2



E |----|----|----|----|----------------------------|----------------|
B |----|----|----|----|----------------------------|----------------|
G |----|----|----|----|----------------------------|----------------|
D |----|----|----|----|--0--2--2--2--2-------------|-----------0----|
A |----|----|----|----|----------------------------|--------2-------|
E |----|----|----|----|----------------------------|----------------|


----------------------------|----|----------------------------|----------------|
----------------------------|----|----------------------------|----------------|
----------------------------|----|--0--2--2--2--2-------------|----------------|
--0--2--2--2--2~------------|----|----------------------------|-----------0----|
----------------------------|----|----------------------------|--------2-------|
----------------------------|----|----------------------------|----------------|


----------------------------|----------------|----------------------------|
----------------------------|----------------|----------------------------|
----------------------------|----------------|----------------------------|
--0--2--2--2--2-------------|-----------0----|--0--2--2--2--2-------------|
----------------------------|--------2-------|----------------------------|
----------------------------|----------------|----------------------------|


----------------|----------------------------|----|----------------------------|
----------------|----------------------------|----|----------------------------|
----------------|----------------------------|----|--0--2--2--2--2-------------|
-----------0----|--0--2--2--2--2~------------|----|----------------------------|
--------2-------|----------------------------|----|----------------------------|
----------------|----------------------------|----|----------------------------|


----------------|----------------------------|----|----|----|
----------------|----------------------------|----|----|----|
----------------|----------------------------|----|----|----|
-----------0----|--0--2--2--2--2-------------|----|----|----|
--------2-------|----------------------------|----|----|----|
----------------|----------------------------|----|----|----|


----------------------------|----------------|----------------------------|----|
----------------------------|----------------|----------------------------|----|
----------------------------|--------4-------|-----0--0--0--0-------------|----|
--0--2--2--2--2-------------|-----------4----|--4-------------------------|----|
----------------------------|----------------|----------------------------|----|
----------------------------|----------------|----------------------------|----|


----------------------------|----------------|----------------------------|----|
----------------------------|----------------|----------------------------|----|
--0--2--2--2--2-------------|----------------|----------------------------|----|
----------------------------|----------------|--0--2--2--2--2-------------|----|
----------------------------|-----------2----|----------------------------|----|
----------------------------|----------------|----------------------------|----|


----|----||---------------------------|----|----------------------------|----|
----|----||---------------------------|----|----------------------------|----|
----|----||o--------------------------|----|----------------------------|----|
----|----||o0--2--2--2--2-------------|----|--0--2--2--2--2-------------|----|
----|----||---------------------------|----|----------------------------|----|
----|----||---------------------------|----|----------------------------|----|


-----------------------0----|-----------7-----------8----|----|---||
-----------1--------0-------|--------0-----------0-------|----|---||
--------0--------0----------|-----0-----------0----------|----|--o||
-----2--------4-------------|--7-----------10------------|----|--o||
--0-------------------------|----------------------------|----|---||
----------------------------|----------------------------|----|---||


-----------7----------------|--0----|----|--0----|----|----|----|----||
--------0-----------0-------|-------|----|--0----|----|----|----|----||
-----0-----------0----------|-------|----|-------|----|----|----|----||
--7-----------10-------10---|-------|----|-------|----|----|----|----||
----------------------------|--0----|----|-------|----|----|----|----||
----------------------------|-------|----|--0----|----|----|----|----||

__________

Guitar #3


                                                                              
E |----|----|----|----|----|----|----|----|----|----|----|----|----|----|----|
B |----|----|----|----|----|----|----|----|----|----|----|----|----|----|----|
G |----|----|----|----|----|----|----|----|----|----|----|----|----|----|----|
D |----|----|----|----|----|----|----|----|----|----|----|----|----|----|----|
A |----|----|----|----|----|----|----|----|----|----|----|----|----|----|----|
E |----|----|----|----|----|----|----|----|----|----|----|----|----|----|----|

                                     ^
----|----|----|----|----|----|----|--0-----0-----0-------------|
----|----|----|----|----|----|----|--0--------------------3----|
----|----|----|----|----|----|----|--0-------------------------|
----|----|----|----|----|----|----|----------------------------|
----|----|----|----|----|----|----|----------------------------|
----|----|----|----|----|----|----|----------------------------|


--0--3-----------3--5--3s---|--7-----7-----7--5-----5L---|
----------------------------|--------------------8-------|
----------------------------|----------------------------|
----------------------------|----------------------------|
----------------------------|----------------------------|
----------------------------|----------------------------|


--5--7L-------7-------------|--5--------3--5--7L-7-------|
----------------------------|----------------------------|
----------------------------|----------------------------|
----------------------------|----------------------------|
----------------------------|----------------------------|
----------------------------|----------------------------|


--3h-0--0-------------------|--3h-0-----0--0g------------|----|----|
--------------------3-------|--------3-------------------|----|----|
----------------------------|----------------------------|----|----|
----------------------------|----------------------------|----|----|
----------------------------|----------------------------|----|----|
----------------------------|----------------------------|----|----|


--------7--10---||-12----12----12-14----12---|--10~---------------7--10---|
----------------||---------------------------|----------------------------|
----------------||o--------------------------|----------------------------|
----------------||o--------------------------|----------------------------|
----------------||---------------------------|----------------------------|
----------------||---------------------------|----------------------------|


--12----12----15-14----12---|--10~--|--5--------3--5--7----------|
----------------------------|-------|----------------------------|
----------------------------|-------|----------------------------|
----------------------------|-------|----------------------------|
----------------------------|-------|----------------------------|
----------------------------|-------|----------------------------|


--8--------7--8--10----8----|--7~---|--5---||--8--------7--8--10---------|
-----------------7----------|--8----|--7---||----------------------------|
----------------------------|--7----|--7--o||----------------------------|
----------------------------|-------|-----o||----------------------------|
----------------------------|-------|------||----------------------------|
----------------------------|-------|------||----------------------------|


--12---|--------------15h12----12g--|--12~--|----|----|----|----||
--13---|--------------13------------|-------|----|----|----|----||
--12---|--------------12------------|-------|----|----|----|----||
-------|----------------------------|-------|----|----|----|----||
-------|----------------------------|-------|----|----|----|----||
-------|----------------------------|-------|----|----|----|----||


Legend
L - tied note
x - dead note
h - hammer on/pull off
b - bend
s - slide
~ - vibrato
g - ghost note
> - accentuated note
t - trill
M - palm mute
. - staccato
P - popping (bass)
S - slapping (bass)
+ - tapping
W - wide vibrato
< - fade in
w - whammy bar
= - tremolo picking
v - brush up
^ - brush down
V - pick stroke up
n - pick stroke down
Login or Register to remove this ad.