Ads

Cosmo Canyon (Final Fantasy VII) Guitar Tab

Submitted: Mar 21, 2012 by Kimez

5
Average: 5 (1 vote)
Download | Listen
Game: Final Fantasy VII
Composer(s): Nobuo Uematsu
Style: Arrangement, Fingerstyle, Percussion
Series: Final Fantasy

AutoScroll: Slow | Medium | Fast
Just listen it if you don't get it :) Remember the first time you hear this song and play with that feeling.
ENJOY!


      X notes = Rythm which you can make with slapping            
      H                                                H          
E||--------------------------------------------------------------|
B||--------------------------------------------------------------|
G||--(x)----------------------------------------------(x)--------|
D||--(x)----------------------------------------------(x)--------|
A||--(x)----------------------------------------------(x)--------|
E||--(x)----------------------------------------------(x)--------|


                                   your right hand to strings                   
   H          H             E   E  E                          E   E   E  E  E   
------------------------|------------------------------------------------------|
------------------------|------------------------------------------------------|
--(x)--------(x)--------|--(x)-----------------------------------(x)-----------|
--(x)--------(x)--------|--(x)-----------------------------------(x)-----------|
--(x)--------(x)--------|---5---7--7--------------------------7---7------------|
--(x)--------(x)--------|--(x)-----------------------------------(x)-----------|


   H          Q     Q        E   E  E  E   E   E  E  E   
-------------------------|------------------------------|
-------------------------|------------------------------|
--(x)--------(x)---------|--(x)-----------(x)-----------|
--(x)--------(x)---------|--(x)-----------(x)-----------|
--(x)---------2-----5----|---5---7--7--7---7------------|
--(x)--------(x)---------|--(x)-----------(x)-----------|


   H          H             E   E  E  E   E   E  E  E   
------------------------|------------------------------|
------------------------|------------------------------|
--(x)--------(x)--------|--(x)-----------(x)-----------|
--(x)--------(x)--------|--(x)-----------(x)-----------|
--(x)---------x---------|---5---7--7--7---7------------|
--(x)--------(x)--------|--(x)-----------(x)-----------|


   E   E  E  E   E   E  E  E      E   E  E  E   E   E  E  E   
------------------------------|------------------------------|
------------------------------|------------------------------|
--(x)-----------(x)-----------|--(x)-----------(x)-----------|
---5---7--7--7---7------------|--(x)-----------(x)-----------|
--(x)-----------(x)-----------|---5---7--7--7---7------------|
--(x)-----------(x)-----------|--(x)-----------(x)-----------|


   H          Q     Q        E   E  E  E   E   E  E  E   
-------------------------|------------------------------|
-------------------------|------------------------------|
--(x)--------(x)---------|--(x)-----------(x)-----------|
--(x)--------(x)---------|--(x)-----------(x)-----------|
--(x)---------2-----5----|---5---7--7--7---7------------|
--(x)--------(x)---------|--(x)-----------(x)-----------|


   H          Q     Q         Q    Q    Q    E  E     E  Q    E  E  E  E  E   
-------------------------||------------------------|-------------------5-----|
-------------------------||---5----5----5----5-----|--5--8----L--L--8-----8--|
--(x)--------(x)---------||*--------------------7--|-------------------------|
--(x)--------(x)---------||*-----------------------|-------------------------|
--(x)---------2-----5----||---7---------7----------|--7----------7-----------|
--(x)--------(x)---------||------------------------|-------------------------|


  Q    Q    E  E  E  E     E  E  Q    Q    Q       Q    E  E  E  E  Q     
--7----7----7--5-----5--|-----7--L----L----L----|--5----L-----5--7--L----|
------------------8-----|-----------------------|----------8-------------|
------------------------|-----------------------|------------------------|
------------------------|-----------------------|------------------------|
--5---------5-----------|--5----------5---------|--0----------0----------|
------------------------|-----------------------|------------------------|


  E  E  E  E  E  E  Q       E  E  E  E  H           H        H           
-------------------------|-----------------------|---------------------||
--8--5--5--L--L--L-------|--8--5-----5--L--------|---------------------||
--------------------7----|--------7--------------|--------------------*||
-------------------------|-----------------------|--------------------*||
--0-----------0----------|-----------------------|---------------------||
-------------------------|--0-----------0--------|--0--------0---------||


  Q     Q     Q     Q        E   E  E   E   H         
--7----10----12----12----|--12--14--L--12--10--------|
-------------12----------|--12-------------12--------|
-------------------------|---------------------------|
-------------------------|---------------------------|
-------------------------|---------------------------|
-------------------------|---------------------------|


   E   E   E   E   Q     Q        E   E  E   E   H         
--------------10--12----12----|--15--14--L--12--10--------|
--12---L--12------12----------|--12-------------12--------|
------------------------------|---------------------------|
------------------------------|---------------------------|
------------------------------|---------------------------|
------------------------------|---------------------------|


   H        Q    E  E     E  E  Q    Q    E  E     E   E  Q    E  E  Q     
------------5----5-----|--5--7--L----8----8--7--|--8--10--L----7--L--L----|
--12----------------8--|------------------------|-------------------------|
------------7----------|--7----------5----------|--5-----------0----------|
-----------------------|------------------------|-------------------------|
-----------------------|------------------------|-------------------------|
-----------------------|------------------------|-------------------------|


  Q    Q    H           Q     Q     Q     Q        E   E  E   E   H         
-------6----7--------|--7----10----12----12----|--12--14--L--12--10--------|
---------------------|-------------12----------|--12-------------12--------|
--0---------0--------|--0----------------------|---------------------------|
---------------------|-------------------------|---------------------------|
---------------------|-------------------------|---------------------------|
---------------------|-------------------------|---------------------------|


   Q     E   E   Q     Q        E   E  E   E   H         
------------10--12----12----|--15--14--L--12--10--------|
--12----12------12----------|--12-------------12--------|
----------------------------|---------------------------|
----------------------------|---------------------------|
----------------------------|---------------------------|
----------------------------|---------------------------|


   H        Q    E  E     E  E  Q    Q    E  E     E   E  Q     E  E  Q     
------------5----5-----|--5--7--L----8----8--7--|--8--10--L----12--L--L----|
--12----------------8--|------------------------|--------------------------|
------------7----------|--7----------5----------|--5-----------------------|
-----------------------|------------------------|---------------9----------|
-----------------------|------------------------|--------------------------|
-----------------------|------------------------|--------------------------|


  H        H            E   E  E   E   H           H        H                  
--L--------L--------|--15--12--L--12--12--------|--L--------L---------||-----||
--------------------|---------------------------|---------------------||-----||
--------------------|---------------------------|--------------------*||-----||
--9--------9--------|---9--------------9--------|--9--------9--------*||-----||
--------------------|---------------------------|---------------------||-----||
--------------------|---------------------------|---------------------||-----||
Login or Register to remove this ad.