Ads

Cosmo Canyon (Final Fantasy VII) Bass/Guitar Tab

Submitted: May 16, 2013 by SixStringDealey

5
Average: 5 (4 votes)
Download | Listen
Game: Final Fantasy VII
Composer(s): Nobuo Uematsu
Style: 2 or more instruments, Transcription
Series: Final Fantasy

This song is also called Valley of the Fallen Star

AutoScroll: Slow | Medium | Fast
Note: The Main Melody in the guitars text file has been arranged 1 octave lower than the official release.
There are simply some notes that require quite a long guitar neck.
As I explain within the performance notes of the Power Tab, I've simply put a capo on it's 12th fret to make it sound proper.
It sounds okay an octave down, but what I'll be doing is using an octave-up effect on my lead guitar.


Aww yeh. New member here. I've been on a kick of learning some old FF tunes that I could dissect
and make Guitar / Bass recordings of lately and i stumbled across this site hoping to find inspiration for
song ideas and already tabbed versions of songs that I'd be interested in doing.
Some of your classical/finger-style arrangements are crazy! (the good kind of crazy, of course.)
Long story short, I couldn't find a tab for Cosmo Canyon that was anywhere near as detailed as I'd like.
I own the soundtrack, so I spent a night transcribing literally everything but
the tambourine (only because the program wouldn't let me :P) in great detail and accuracy
all while ensuring playability without loss of quality. 


Anyway, I really hope that you guys will check out the Power Tab file, as I assure you that it is VERY accurate
for all instruments. Each of which has been properly arranged for various guitars. I've also transcribed the bass
all the way through which is something i haven't seen done.
(Some people roughly arrange it for guitars in standard tuning, but I believe it's more proper on the bass.
This gives you bass players something to do, as well. :D) I feel like this is the ideal place for my tab to rest.



                            VALLEY OF THE FALLEN STAR
                          As recorded by Nobuo Uematsu
               (From the 1997 Album FINAL FANTASY VII SOUNDTRACK)

Music by Nobuo Uematsu
Arranged by Nobuo Uematsu
Transcribed by Alex Cowan

Gtr I (E A D G B E) - 'Banjo'
Gtr II (E A D G B E) - 'Strings (Left)'
Gtr III (E A D G B E) - 'Strings (Right)'
Gtr IV (E A D G B E) - 'Main Melody'








 Intro (Percussion / Bass only for 14 measures)
  Q=128
 4/4




 Verse (Banjo / Main Melody)
   $ (Segno)
  Gtr I
|--0--------------|--0----------------|
|----------8------|----------8--------|
|-------7-------7-|--------7--------7-|
|-----9-------9---|------9--------9---|
|-----------------|-------------------|
|-----------------|-------------------|
|
| Gtr IV
|-----------------|-------------------|
|-----------------|----8-------8h10p8-|
|-/9--9---/9----7-|-/9----------------|
|-----------------|-------------------|
|-----------------|-------------------|
|-----------------|-------------------|


|-------------7---------|----------------7-------|
|---8-------------------|---8--------------------|
|----------7----------7-|------------7---------7-|
|--------9---------9----|----------9---------9---|
|-----------------------|------------------------|
|-----------------------|------------------------|
|
|                                        ~~~~
|-----------------------|------------------------|
|-/12--/12---12p10p8-10-|-(10)-/12-----(12)------|
|-----------------------|------------------------|
|-----------------------|------------------------|
|-----------------------|------------------------|
|-----------------------|------------------------|


|-----------5-------|-----------5-------|--0----------------|--0--------------|
|---5---------------|-5-----------------|-----------8-------|----------8------|
|--------5--------5-|--------5--------5-|--------7--------7-|--------7------7-|
|------7--------7---|------7--------7---|------9--------9---|------9------9---|
|-------------------|-------------------|-------------------|-----------------|
|-------------------|-------------------|-------------------|-----------------|
|
|                                                              >
|                                                              ~~~
|-------------7-----|-------------------|-------------------|-----------------|
|-/10----8-10-------|-8-----------------|-/8----------------|-----------------|
|-------------------|---9-/9---(9)--7---|----9-7-9-(9)------|-(9)-------------|
|-------------------|-------------------|-------------------|-----------------|
|-------------------|-------------------|-------------------|-----------------|
|-------------------|-------------------|-------------------|-----------------|


|-0-------------|-0--------------|--0--------------|-0----------------|
|--------8------|---------8------|----------8------|---------8--------|
|------7------7-|------7-------7-|-------7-------7-|-------7--------7-|
|----9------9---|----9-------9---|-----9-------9---|-----9--------9---|
|---------------|----------------|-----------------|------------------|
|---------------|----------------|-----------------|------------------|
|
|---------------|----------------|-----------------|------------------|
|---------------|----------------|-----------------|---8-------8h10p8-|
|---------------|------------7---|-/9--9---/9----7-|-9----------------|
|---------------|--------/9------|-----------------|------------------|
|---------------|----------------|-----------------|------------------|
|---------------|----------------|-----------------|------------------|


|-------------7---------|----------------7-------|
|---8-------------------|---8--------------------|
|----------7----------7-|------------7---------7-|
|--------9---------9----|----------9---------9---|
|-----------------------|------------------------|
|-----------------------|------------------------|
|
|                                        ~~~~
|-----------------------|------------------------|
|-/12--/12---12p10p8-10-|-(10)-/12-----(12)------|
|-----------------------|------------------------|
|-----------------------|------------------------|
|-----------------------|------------------------|
|-----------------------|------------------------|


|-----------5-------|-----------5-------|
|---5---------------|-5-----------------|
|--------5--------5-|--------5--------5-|
|------7--------7---|------7--------7---|
|-------------------|-------------------|
|-------------------|-------------------|
|
|-------------7-----|-------------------|
|-/10----8-10-------|-8-----------------|
|-------------------|---9-/9---(9)--7---|
|-------------------|-------------------|
|-------------------|-------------------|
|-------------------|-------------------|


|--0----------------|--0--------------|-0-------------|-0----------------|
|-----------8-------|----------8------|--------8------|----------8-------|
|--------7--------7-|--------7------7-|------7------7-|------7---------7-|
|------9--------9---|------9------9---|----9------9---|----9---------9---|
|-------------------|-----------------|---------------|------------------|
|-------------------|-----------------|---------------|------------------|
|
|                      >
|                      ~~~
|-------------------|-----------------|---------------|-------------10---|
|-/8----------------|-----------------|---------------|--------/12-------|
|----9-7-9-(9)------|-(9)-------------|---------------|------------------|
|-------------------|-----------------|---------------|------------------|
|-------------------|-----------------|---------------|------------------|
|-------------------|-----------------|---------------|------------------|


 Chorus (Strings Left, Main Melody, Strings Right)
  Gtr II
            >               >                 >
|--12-----(12)-----------------|-----------------|
|--12-----(12)--12--------(12)-|--15--------(15)-|
|---9------(9)--11--------(11)-|--14--------(14)-|
|----------------9---------(9)-|--12--------(12)-|
|------------------------------|-----------------|
|------------------------------|-----------------|
|
|                                  ~~~
|-/12--12------/12-14--12------|-/10------7-/10--|
|------------------------------|-----------------|
|------------------------------|-----------------|
|------------------------------|-----------------|
|------------------------------|-----------------|
|------------------------------|-----------------|


            >              >                                     >
|--12-----(12)----------------|-------------------------------------|
|--12-----(12)-12--------(12)-|-15-----------------------------(15)-|
|---9------(9)-11--------(11)-|-14-----------------------------(14)-|
|---------------9---------(9)-|-12-----------------------------(12)-|
|-----------------------------|-------------------------------------|
|-----------------------------|-------------------------------------|
|
|                                                        ~~~~~
|-/12--12------15-14--12------|-------------------------------------|
|-----------------------------|-14pb15===(14)r(14)b15==(14)r--------|
|-----------------------------|-------------------------------------|
|-----------------------------|-------------------------------------|
|-----------------------------|-------------------------------------|
|-----------------------------|-------------------------------------|


|------------------|-------------------|------------|--------------------|
|------------------|---------------7---|---8--------|---7----------------|
|--------------7---|---9-----7--9------|------------|--------------------|
|--10----9-10------|-------------------|------------|--------------------|
|------------------|-------------------|------------|--------------------|
|------------------|-------------------|------------|--------------------|
|
|                                                       >
|                                          ~~~
|------------------|--------------10---|------------|----------------10--|
|-------------12---|--13----12-13------|-/12--------|-(12)------/12------|
|-/14---12-14------|-------------------|------------|--------------------|
|------------------|-------------------|------------|--------------------|
|------------------|-------------------|------------|--------------------|
|------------------|-------------------|------------|--------------------|
|
| Gtr III
|--12--------------|-(12)--------------|--15--------|--14---12-----------|
|------------------|-------------------|------------|------------15--12--|
|------------------|-------------------|------------|--------------------|
|------------------|-------------------|------------|--------------------|
|------------------|-------------------|------------|--------------------|
|------------------|-------------------|------------|--------------------|


            >               >                 >
|--12-----(12)-----------------|-----------------|
|--12-----(12)--12--------(12)-|--15--------(15)-|
|---9------(9)--11--------(11)-|--14--------(14)-|
|----------------9---------(9)-|--12--------(12)-|
|------------------------------|-----------------|
|------------------------------|-----------------|
|
|                                  ~~~
|-/12--12------/12-14--12------|-/10------7-/10--|
|------------------------------|-----------------|
|------------------------------|-----------------|
|------------------------------|-----------------|
|------------------------------|-----------------|
|------------------------------|-----------------|
|
|------------------------------|-----------------|
|------------------------------|-----------------|
|------------------------------|-----------------|
|------------------------------|-----------------|
|------------------------------|-----------------|
|------------------------------|-----------------|


            >              >                                     >
|--12-----(12)----------------|-------------------------------------|
|--12-----(12)-12--------(12)-|-15-----------------------------(15)-|
|---9------(9)-11--------(11)-|-14-----------------------------(14)-|
|---------------9---------(9)-|-12-----------------------------(12)-|
|-----------------------------|-------------------------------------|
|-----------------------------|-------------------------------------|
|
|                                                        ~~~~~
|-/12--12------15-14--12------|-------------------------------------|
|-----------------------------|-14pb15===(14)r(14)b15==(14)r--------|
|-----------------------------|-------------------------------------|
|-----------------------------|-------------------------------------|
|-----------------------------|-------------------------------------|
|-----------------------------|-------------------------------------|
|
|-----------------------------|-------------------------------------|
|-----------------------------|-------------------------------------|
|-----------------------------|-------------------------------------|
|-----------------------------|-------------------------------------|
|-----------------------------|-------------------------------------|
|-----------------------------|-------------------------------------|


|------------------|-----------------|------------|---------|
|------------------|-------------7---|---8--------|--(8)----|
|--------------7---|--9----7--9------|------------|---------|
|--10----9-10------|-----------------|------------|---------|
|------------------|-----------------|------------|---------|
|------------------|-----------------|------------|---------|
|
|                                        ~~~~~~~~~~~~~~~~
|------------------|------------10---|-/12--------|-(12)----|
|-------------12---|-13---12-13------|------------|---------|
|-/14---12-14------|-----------------|------------|---------|
|------------------|-----------------|------------|---------|
|------------------|-----------------|------------|---------|
|------------------|-----------------|------------|---------|
|
|------------------|-----------------|------------|---------|
|------------------|-----------------|------------|--20-----|
|------------------|-----------------|------------|---------|
|------------------|-----------------|------------|---------|
|------------------|-----------------|------------|---------|
|------------------|-----------------|------------|---------|


                                                     >
|-------------|--------------------|-------------|---------|
|--(8)--------|--(8)------8--7-----|-------------|---------|
|-------------|--------------------|---9---------|--(9)----|
|-------------|--------------------|-------------|---------|
|-------------|--------------------|-------------|---------|
|-------------|--------------------|-------------|---------|
|
|                 >                                  >
|   ~~~~                               ~~~~
|-(12)--------|-(12)----/15-12--12-|-(12)--------|-(12)----|
|-------------|--------------------|-------------|---------|
|-------------|--------------------|-------------|---------|
|-------------|--------------------|-------------|---------|
|-------------|--------------------|-------------|---------|
|-------------|--------------------|-------------|---------|
|
|                                                    >
|--20---------|-(20)-----20-19-----|--19---------|-(19)----|
|-(20)--------|-(20)-----20-19-----|--17---------|-(17)----|
|-------------|--------------------|-------------|---------|
|-------------|--------------------|-------------|---------|
|-------------|--------------------|-------------|---------|
|-------------|--------------------|-------------|---------|


 Bridge to Verse (Banjo)
  Gtr I
|-0-------------|-0-------------|-0-------------|-0-------------|
|--------8------|--------8------|--------8------|--------8------|
|------7------7-|------7------7-|------7------7-|------7------7-|
|----9------9---|----9------9---|----9------9---|----9------9---|
|---------------|---------------|---------------|---------------|
|---------------|---------------|---------------|---------------|


                              D.S. (Dal Segno [this means return to segno [the verse :P])
|-0-------------|-0-------------|
|--------8------|--------8------|
|------7------7-|------7------7-|
|----9------9---|----9------9---|
|---------------|---------------|
|---------------|---------------|


 Outro (Banjo / Main Melody Fade Out)
|--0--------------|--0----------------|
|----------8------|----------8--------|
|-------7-------7-|--------7--------7-|
|-----9-------9---|------9--------9---|
|-----------------|-------------------|
|-----------------|-------------------|
|
| Gtr IV
|-----------------|-------------------|
|-----------------|----8-------8h10p8-|
|-/9--9---/9----7-|-/9----------------|
|-----------------|-------------------|
|-----------------|-------------------|
|-----------------|-------------------|


|-------------7---------|----------------7-------|
|---8-------------------|---8--------------------|
|----------7----------7-|------------7---------7-|
|--------9---------9----|----------9---------9---|
|-----------------------|------------------------|
|-----------------------|------------------------|
|
|                                        ~~~~
|-----------------------|------------------------|
|-/12--/12---12p10p8-10-|-(10)-/12-----(12)------|
|-----------------------|------------------------|
|-----------------------|------------------------|
|-----------------------|------------------------|
|-----------------------|------------------------|


|-----------5-------|-----------5-------|--0----------------|--0--------------*|
|---5---------------|-5-----------------|-----------8-------|----------8------*|
|--------5--------5-|--------5--------5-|--------7--------7-|--------7------7-*|
|------7--------7---|------7--------7---|------9--------9---|------9------9---*|
|-------------------|-------------------|-------------------|-----------------*|
|-------------------|-------------------|-------------------|-----------------*|
|
|                                                              ~~~
|-------------7-----|-------------------|-------------------|-----------------*|
|-/10----8-10-------|-8-----------------|-/8----------------|-----------------*|
|-------------------|---9-/9---(9)--7---|----9-7-9-(9)------|-(9)-------------*|
|-------------------|-------------------|-------------------|-----------------*|
|-------------------|-------------------|-------------------|-----------------*|
|-------------------|-------------------|-------------------|-----------------*|




                      VALLEY OF THE FALLEN STAR (Bassline)
                          As recorded by Nobuo Uematsu
               (From the 1997 Album FINAL FANTASY VII SOUNDTRACK)

Music by Nobuo Uematsu
Arranged by Nobuo Uematsu
Transcribed by Alex Cowan

Gtr I (E A D G) - 'Tribal Drums' (not to be played by guitar or bass. too lazy to remove...)
Gtr II (E A D G) - 'Acoustic Bass'
Gtr III (E A D G) - 'Distorted Bass'





 Intro (Tribal Drums / Acoustic Bass)
  Q=128
 4/4
  Gtr I
     PM|    PM|      PM|    PM|      PM|    PM|      PM|    PM|
|---------------|---------------|---------------|----------------|
|---------------|---------------|---------------|----------------|
|-7--7---7--7---|-7--7---7--7---|-7--7---7--7---|-7--7---7--7----|
|-0--0-0-0--0-0-|-0--0-0-0--0-0-|-0--0-0-0--0-0-|-0--0-0-0--0-0--|


         PM|      PM|      PM|      PM|          PM|      PM|      PM|    PM|
|---------------------|-----------------|---------------------|---------------|
|---------------------|-----------------|---------------------|---------------|
|--7-----7-----7--7---|-7--7----7---7---|--7-----7-----7--7---|-7--7---7--7---|
|--0-----0--0--0--0-0-|-0--0-0--0---0-0-|--0-----0--0--0--0-0-|-0--0-0-0--0-0-|
|
| Gtr II
|---------------------|-----------------|---------------------|---------------|
|-12h14-14-14-14------|------------12---|-12h14-14-14-14------|---------------|
|---------------------|--------14-------|---------------------|---------------|
|---------------------|-----------------|---------------------|---------------|


         PM|      PM|      PM|      PM|          PM|      PM|      PM|      PM|
|---------------------|-----------------|---------------------|-----------------|
|---------------------|-----------------|---------------------|-----------------|
|--7-----7-----7--7---|-7--7----7---7---|--7-----7-----7--7---|-7--7----7---7---|
|--0-----0--0--0--0-0-|-0--0-0--0---0-0-|--0-----0--0--0--0-0-|-0--0-0--0---0-0-|
|
|-12h14-14-14-14------|-----------------|---------------------|-----------------|
|---------------------|------------12---|-12h14-14-14-14------|------------12---|
|---------------------|--------14-------|---------------------|--------14-------|
|---------------------|-----------------|---------------------|-----------------|




 Verse
  $ (Segno)
         PM|      PM|      PM|      PM|
|---------------------|-----------------|
|---------------------|-----------------|
|--7-----7-----7--7---|-7--7----7---7---|
|--0-----0--0--0--0-0-|-0--0-0--0---0-0-|
|
|---------------------|-----------------|
|-12h14-14-14-14------|--------14--12---|
|---------------------|-----------------|
|---------------------|-----------------|


        PM|        PM|       PM|      PM|
|-----------------------|-----------------|
|-----------------------|-----------------|
|-7-----7-----7----7----|-7--7----7---7---|
|-0-----0--0--0----0-0--|-0--0-0--0---0-0-|
|
|---11h12-12-12-12------|--------12--16---|
|-----------------------|-----------------|
|-----------------------|-----------------|
|-----------------------|-----------------|


         PM|      PM|      PM|      PM|
|---------------------|------------------|
|---------------------|------------------|
|--7-----7-----7--7---|-7--7----7---7----|
|--0-----0--0--0--0-0-|-0--0-0--0---0-0--|
|
|-12h14-14-14-14------|--------14--------|
|---------------------|------------12----|
|---------------------|------------------|
|---------------------|------------------|


         PM|      PM|      PM|      PM|
|---------------------|-----------------|
|---------------------|-----------------|
|--7-----7-----7--7---|-7--7----7---7---|
|--0-----0--0--0--0-0-|-0--0-0--0---0-0-|
|
|---------------------|-----------------|
|-12h14-14-14-14------|--------14--12---|
|---------------------|-----------------|
|---------------------|-----------------|


         PM|      PM|      PM|      PM|
|---------------------|-------------------|
|---------------------|-------------------|
|--7-----7-----7--7---|-7--7----7---7-----|
|--0-----0--0--0--0-0-|-0--0-0--0---0-0---|
|
|---------------------|-------------------|
|-12h14-14-14-14------|--------14--12-----|
|---------------------|-------------------|
|---------------------|-------------------|


         PM|      PM|      PM|      PM|
|---------------------|-----------------|
|---------------------|-----------------|
|--7-----7-----7--7---|-7--7----7---7---|
|--0-----0--0--0--0-0-|-0--0-0--0---0-0-|
|
|---------------------|-----------------|
|-12h14-14-14-14------|--------14--12---|
|---------------------|-----------------|
|---------------------|-----------------|


         PM|      PM|      PM|      PM|
|---------------------|-------------------|
|---------------------|-------------------|
|--7-----7-----7--7---|-7--7----7---7-----|
|--0-----0--0--0--0-0-|-0--0-0--0---0-0---|
|
|-11h12-12-12-12------|--------12--16-----|
|---------------------|-------------------|
|---------------------|-------------------|
|---------------------|-------------------|


         PM|      PM|      PM|      PM|
|---------------------|-----------------|
|---------------------|-----------------|
|--7-----7-----7--7---|-7--7----7---7---|
|--0-----0--0--0--0-0-|-0--0-0--0---0-0-|
|
|-12h14-14-14-14------|--------14-------|
|---------------------|------------12---|
|---------------------|-----------------|
|---------------------|-----------------|


         PM|      PM|      PM|      PM|
|---------------------|-------------------|
|---------------------|-------------------|
|--7-----7-----7--7---|-7--7----7---7-----|
|--0-----0--0--0--0-0-|-0--0-0--0---0-0---|
|
|---------------------|-------------------|
|-12h14-14-14-14------|--------14--12-----|
|---------------------|-------------------|
|---------------------|-------------------|


         PM|      PM|      PM|      PM|
|---------------------|-----------------|
|---------------------|-----------------|
|--7-----7-----7--7---|-7--7----7---7---|
|--0-----0--0--0--0-0-|-0--0-0--0---0-0-|
|
|---------------------|-----------------|
|-12h14-14-14-14------|--------14--12---|
|---------------------|-----------------|
|---------------------|-----------------|


 Chorus (Distorted Bass)
         PM|      PM|      PM|      PM|
|---------------------|-------------------|
|---------------------|-------------------|
|--7-----7-----7--7---|-7--7----7---7-----|
|--0-----0--0--0--0-0-|-0--0-0--0---0-0---|
|
| Gtrs II, III
|---------------------|-------------------|
|-12h14-14-14-14------|------------12-----|
|---------------------|--------14---------|
|---------------------|-------------------|


         PM|      PM|      PM|      PM|
|---------------------|-----------------|
|---------------------|-----------------|
|--7-----7-----7--7---|-7--7----7---7---|
|--0-----0--0--0--0-0-|-0--0-0--0---0-0-|
|
|---------------------|-----------------|
|-12h14-14-14-14------|------------12---|
|---------------------|--------14-------|
|---------------------|-----------------|


         PM|      PM|      PM|    PM|
|---------------------|-----------------|
|---------------------|-----------------|
|--7-----7-----7--7---|-7--7---7--7-----|
|--0-----0--0--0--0-0-|-0--0-0-0--0-0---|
|
|---------------------|-----------------|
|---------------------|-----------------|
|-10h12-12-12-12------|-----------------|
|---------------------|--------8--------|


        PM|      PM|      PM|      PM|
|--------------------|-----------------|
|--------------------|-----------------|
|-7-----7-----7--7---|-7--7----7---7---|
|-0-----0--0--0--0-0-|-0--0-0--0---0-0-|
|
|--------------------|-----------------|
|--------------------|------------12---|
|-8h10-10-10-10------|--------14-------|
|--------------------|-----------------|


         PM|      PM|      PM|      PM|
|---------------------|-------------------|
|---------------------|-------------------|
|--7-----7-----7--7---|-7--7----7---7-----|
|--0-----0--0--0--0-0-|-0--0-0--0---0-0---|
|
|---------------------|-------------------|
|-12h14-14-14-14------|------------12-----|
|---------------------|--------14---------|
|---------------------|-------------------|


         PM|      PM|      PM|      PM|       PM|    PM|       PM|    PM|
|---------------------|-----------------|----------------|----------------|
|---------------------|-----------------|----------------|----------------|
|--7-----7-----7--7---|-7--7----7---7---|--7--7---7--7---|--7--7---7--7---|
|--0-----0--0--0--0-0-|-0--0-0--0---0-0-|--0--0-0-0--0-0-|--0--0-0-0--0-0-|
|
|---------------------|-----------------|----------------|----------------|
|-12h14-14-14-14------|------------12---|----------------|-10-------------|
|---------------------|--------14-------|-12-------------|----------------|
|---------------------|-----------------|----------------|----------------|


       PM|       PM|         PM|       PM|
|---------------------|---------------------|
|---------------------|---------------------|
|--7---7-----7---7----|--7---7-----7---7----|
|--0---0--0--0---0--0-|--0---0--0--0---0--0-|
|
|---------------------|---------------------|
|-10--10-10-10--10-10-|-10--10-10-10--10-10-|
|---------------------|---------------------|
|---------------------|---------------------|


       PM|       PM|         PM|      PM|
|---------------------|-------------------|
|---------------------|-------------------|
|--7---7-----7---7----|--7---7-----7--7---|
|--0---0--0--0---0--0-|--0---0--0--0--0-0-|
|
|---------------------|-------------------|
|-10--10-10-10--10-10-|-10--10-10-10------|
|---------------------|-------------------|
|---------------------|-------------------|


 Bridge to Verse (Acoustic Bass)
         PM|      PM|      PM|      PM|
|---------------------|-----------------|
|---------------------|-----------------|
|--7-----7-----7--7---|-7--7----7---7---|
|--0-----0--0--0--0-0-|-0--0-0--0---0-0-|
|
| Gtr II
|---------------------|-----------------|
|-12h14-14-14-14------|------------12---|
|---------------------|--------14-------|
|---------------------|-----------------|


         PM|      PM|      PM|      PM|
|---------------------|-------------------|
|---------------------|-------------------|
|--7-----7-----7--7---|-7--7----7---7-----|
|--0-----0--0--0--0-0-|-0--0-0--0---0-0---|
|
|---------------------|-------------------|
|-12h14-14-14-14------|------------12-----|
|---------------------|--------14---------|
|---------------------|-------------------|


         PM|      PM|      PM|      PM|
|---------------------|-----------------|
|---------------------|-----------------|
|--7-----7-----7--7---|-7--7----7---7---|
|--0-----0--0--0--0-0-|-0--0-0--0---0-0-|
|
|---------------------|-----------------|
|-12h14-14-14-14------|------------12---|
|---------------------|--------14-------|
|---------------------|-----------------|


                                      D.S. (Dal Segno [Return to segno. the Verse])
         PM|      PM|      PM|      PM|
|---------------------|-----------------|
|---------------------|-----------------|
|--7-----7-----7--7---|-7--7----7---7---|
|--0-----0--0--0--0-0-|-0--0-0--0---0-0-|
|
|---------------------|-----------------|
|-12h14-14-14-14------|------------12---|
|---------------------|--------14-------|
|---------------------|-----------------|


 Outro (Fade Out)
         PM|      PM|      PM|      PM|
|---------------------|-----------------|
|---------------------|-----------------|
|--7-----7-----7--7---|-7--7----7---7---|
|--0-----0--0--0--0-0-|-0--0-0--0---0-0-|
|
|---------------------|-----------------|
|-12h14-14-14-14------|--------14--12---|
|---------------------|-----------------|
|---------------------|-----------------|


         PM|      PM|      PM|      PM|
|---------------------|-----------------|
|---------------------|-----------------|
|--7-----7-----7--7---|-7--7----7---7---|
|--0-----0--0--0--0-0-|-0--0-0--0---0-0-|
|
|-11h12-12-12-12------|--------12--16---|
|---------------------|-----------------|
|---------------------|-----------------|
|---------------------|-----------------|


         PM|      PM|      PM|      PM|
|---------------------|-----------------|
|---------------------|-----------------|
|--7-----7-----7--7---|-7--7----7---7---|
|--0-----0--0--0--0-0-|-0--0-0--0---0-0-|
|
|-12h14-14-14-14------|--------14-------|
|---------------------|------------12---|
|---------------------|-----------------|
|---------------------|-----------------|


         PM|      PM|      PM|      PM|
|---------------------|-----------------*|
|---------------------|-----------------*|
|--7-----7-----7--7---|-7--7----7---7---*|
|--0-----0--0--0--0-0-|-0--0-0--0---0-0-*|
|
|---------------------|-----------------*|
|-12h14-14-14-14------|--------14--12---*|
|---------------------|-----------------*|
|---------------------|-----------------*|


Tablature Legend
----------------
 h   - hammer-on
 p   - pull-off
 b   - bend
 pb  - pre-bend
 r   - bend release (if no number after the r, then release immediately)
 /\  - slide into or out of (from/to "nowhere")
 s   - legato slide
 S   - shift slide
  - natural harmonic
[n]  - artificial harmonic
n(n) - tapped harmonic
 ~   - vibrato
 tr  - trill
 T   - tap
 TP  - trem. picking
 PM  - palm muting
\n/  - tremolo bar dip; n = amount to dip
 \n  - tremolo bar down
 n/  - tremolo bar up
/n\  - tremolo bar inverted dip
 =   - hold bend; also acts as connecting device for hammers/pulls
 <>  - volume swell (louder/softer)
 x   - on rhythm slash represents muted slash
 o   - on rhythm slash represents single note slash

Misc Legend
-----------
 |  - bar
||  - double bar
||o - repeat start
o|| - repeat end
*|  - double bar (ending)
 :  - bar (freetime)
 $  - Segno
 &  - Coda
Tempo markers -  = BPM(8/16=s8/s16), where s8 = swing 8ths, s16 = swing 16ths


***************************************************************************************
* Generated using Power Tab Editor by Brad Larsen - http://powertab.guitarnetwork.org *
***************************************************************************************
Login or Register to remove this ad.

4 comments on Cosmo Canyon

maybe i've got too many

maybe i've got too many things happening at once for the midi to handle, or maybe it's something on my end, but unfortunately the Main Melody cuts out here and there when i play it. It is there, though. don't let the midi fool ya! that aside, I hope the tab serves you well. :P

sounds good to me

sounds good to me

good to know. something to do

good to know. something to do with quicktime player, then, likely.

here's an MP3

this is what i ended up with after arranging and recording this tune if anyone's curious or interested. it's not quite a perfect recording, but i think it turned out to be pretty cool!

MP3 (8.3 MB)

(edited for recently re-mastered mp3)