Ads

Chocobo Theme (SongeLeReveur Version) (Final Fantasy VII) Guitar Tab

Submitted: Jul 10, 2013 by ForestMarth

5
Average: 5 (3 votes)
Download | Listen
Game: Final Fantasy VII
Composer(s): Nobuo Uematsu
Style: Arrangement, Natural harmonics, Tapping, Transcription
Series: Final Fantasy

AutoScroll: Slow | Medium | Fast
            Final Fantasy Series - Chocobo's Theme


Composed by : Nobuo Uematsu

Arranged by : SongeLeReveur

Tabbed by : ForestMarth


I didn't tab the rhythm. Sorry !
Look at SongeLeReveur's video to hear the rhythm.
Sometimes I decided to write the dead notes (x), but sometimes I didn't write it :)




e--------------------------------------------------------------------------------
B----------7-----------10------------9-----------9-------------------------------
G----------7-----------10------------9-----------8-------------------------------
D----------6-----------9-------------8-----------7-------------------------------
A------7---------------------8---9-----------------------------------------------
E--\-----------8---9---------------------8---7-----------------------------------




e--------------------------------------------------------------------------------
B----------7-----------10-------9---9---9----------------------------------------
G----------7-----------10-------9---9---8----------------------------------------
D----------6-----------9--------8---8---7----------------------------------------
A--6---7--------------------8---9---9--------------------------------------------
E--------------8---9--------------------7----------------------------------------




e--7--------4p0----------5s7---4p0---4---------------0---3s4----------------------
B--7--------0-----2----------------------5-------5-------------3------------------
G--7-------(4)----0--------------------------4---------------------4--------------
D--------------------------------------------------------0-------------0----------
A--------------------0------------------------------------------------------------
E------0-----------------------------0--------------------------------------------



             ^                                                             T
e--2p0-------0---2p0-----------0---------------(0)---0---4---7---9---10---------------
B------------0---------3(p0)---------------0----0--------------------8----------------
G------------1-----------------------------2----1--------------------8----------------
D--------------------------------------2--------2--------------------7----------------
A----------------------------------0--------------------------------------------------
E--------0--------------------------------------0--------------------------7p0--------




e--7----4p0-----------5s7---4p0---4---------------0---3s4-------------------------
B--7----0-----2-----------------------5-------5-------------3---------------------
G--7---(4)----0---------------------------4---------------------4-----------------
D-----------------------------------------------------0-------------0-------------
A-----------------0---------------------------------------------------------------
E---------------------------------0-----------------------------------------------



             ^
e--2p0-------0---2p0-----------0----------------------------4---7---9---10--------
B------------0---------3(p0)---------------2---3----5---5---------------10--------
G------------1-----------------------------0--------4-------------------10--------
D--------------------------------------2-----------(4)------------------9---------
A----------------------------------0----------------------------------------------
E--------0------------------------------------------4-------------------9---------




e------------------9------------4s5-------2-------2---5---9-------12---7----------------
B--(x)------------------10\-----------2-------4---------------9---10---5---5------------
G-------(x)------------(9)\-------------------2---------------9---9----7-------7--------
D----------------------(11)\------------------4------------------------6----------------
A------------(x)--------9\--------------------2---------------7---9---------------------
E----------------------------------------------------------------------------------0----




e--4---5---------------2-----------------2---5---4---4---5p4---3---4---------------
B----------2---------------4p0-------4-----------5---5---5-----4---3---------------
G--------------2---------------------------------4---4---4-----3---4---------------
D------4-----------4-----------------------------------------------3---------------
A--------------------------------2-------------------------------------------------
E------------------------------------------------0---------------------------------



                                              
                                                    with left hand        with right hand
e--4---5---7---------4s5---2-------2---5---9----7---x---------------------x--------------
B----------6---10\-------------4----------------5---x---------------------x--------------
G----------7---9\--------------2---------------(4)--x---------------------x--------------
D----------6---11\-------------4--------------------x------------------------------------
A--------------9\--------------3----------------4---x------------------------------------
E---------------------------------------------------x------------------------------------



    NH
e--<12>---7---(x)---4---2---2---4p2---0---2---------------0----2-----------------
B--<12>---5---(x)---3---0---------------------0----------------0-----------------
G---------5---(x)---4---2-------------------------2------------2-----------------
D---------7---------3---2-------------------------------------(1)----------------
A---------5----------------------------------------------------2-----------------
E-----------------------------------------------------2--------------------------



                                             NH
e--2---4---5---7---9-------------------11---<12>----------------------------------
B----------------------7---------------10---<12>----------------------------------
G--------------------------8-------8---11-----------------------------------------
D------------------------------7-------10-----------------------------------------
A--------------------------------------------------------------11---8h9---9-------
E--------------------------------------------------0---8---9----------------------


                          NH
e------------------------<12>--------------------------------------------------
B------------------------<12>----------------------9---8-----------------------
G--------------------------------------------------9---8-----------------------
D----------9---------------------------------------8---7-----------------------
A--------------8---6s7------------------11---8h9---9---8-----------------------
E--8---7------------------------8---9------------------------------------------




e------------7-------4p0---(x)-------------5s7---4p0---4---------------0--------
B--------7-----------0-----(x)----2------------------------5-------5------------
G--6s7--------------(4)----(x)----0----------------------------4----------------
D--------------------------------(2)--------------------------------------------
A--------------------------------------0----------------------------------------
E----------------0-------------------------------------0------------------------



                 ^                                                          T
e--4---2p0-------0---2p0-------0------------------0----0---4---7---9---10---------------
B--3-------------0---------3-----------2s3---2----0--------------------8----------------
G--4-------------1---------------------0-----0----1--------------------8----------------
D--0-----------------------------------2s3---2---(2)-------------------7----------------
A----------------------------------0---------0------------------------------------------
E------------0------------------------------------0-------------------------5s7s5s7p0---




e--7----4p0-------------5s7---4p0---4---------------0---3s4-----------------------
B--7----0------2------------------------5-------5-------------3-------------------
G--7---(4)-----0----------------------------4---------------------4---------------
D-------------(2)---------------------------------------0-------------0-----------
A-------------------0-------------------------------------------------------------
E-----------------------------------0---------------------------------------------




e--2p0-------------------------------------------------------------------------
B--------------------(0)-------------------------------------------------------
G--------------------(0)-------------------------------------------------------
D----------------------------------(2)-----------(1)---------------------------
A------------3---4-----------------------1---2---------------------------------
E--------0-----------------3---2-----------------------------------------------



e--2p0-------------------------------------------------------------------------
B--------------------(0)-------------------------------------------------------
G--------------------(0)-------------------------------------------------------
D----------------------------------(2)-----------(1)---------------------------
A------------3---4-----------------------1---2---------------------------------
E--------0-----------------3---2-----------------------------------------------



                   NH                            NH
e--2p0-------------------------------------------------------------------------
B------------------------------------------------------------------------------
G------------------------------------------------------------------------------
D----------------(<7>)-----------(9)-----------(<7>)---------------------------
A--------(6s)7-------------------------8---9-----------------------------------
E------------------------8---9-------------------------8---7-------------------



                                        ^
e--2p0----------------------------------x--------------------------------------
B-------------------------------9---8---7--------------------------------------
G-------------------------------9---8---7--------------------------------------
D-------------------------------8---7---6--------------------------------------
A--------------------10---8h9---9---8---7--------------------------------------
E--------0---8---9----------------------0--------------------------------------




Kweh!




Tablature Legend
----------------
x - dead note
(n) - ghost note
NH - natural harmonic
h - hammer on
p - pull off
s - legato slide
\ -  slide into from above or out of downwards
T - tapping
^ - brush up
Login or Register to remove this ad.

2 comments on Chocobo Theme (SongeLeReveur Version)

Awesome stuff

5

Awesome stuff

I feel like a song like this

I feel like a song like this would really benefit from having the note durations listed.