Chasing the Black Caped Man (Final Fantasy VII) Guitar Tab

Submitted: Jan 14, 2011 by zen03y

4.75
Average: 4.8 (4 votes)
Download | Listen
Game: Final Fantasy VII
Composer(s): Nobuo Uematsu
Style: Arrangement, Fingerstyle
Series: Final Fantasy

Click here for a video example.

AutoScroll: Slow | Medium | Fast
Title: In Search of the Man in Black
Artist: Nobuo Uematsu
Album: Final Fantasy VII OST
Tabber: xen05z/zen03y (January 12th, 2011)
Tempo = 100
Nylon Guitar

Legend
L - tied note
x - dead note
h - hammer on/pull off
b - bend
s - slide
~ - vibrato
g - ghost note
> - accentuated note
t - trill
M - palm mute
. - staccato
P - popping (bass)
S - slapping (bass)
+ - tapping
W - wide vibrato
< - fade in
w - whammy bar
= - tremolo picking
v - brush up
^ - brush down
V - pick stroke up
n - pick stroke down

                                                             
E |--8-------------------------|--0-------------------------|
B |----------------------------|-----------3L-3-------------|
G |-----------5L-5-------------|--------0-------------------|
D |-----6--7-------------------|-----4----------------------|
A |--0-------------------------|--0-------------------------|
E |----------------------------|----------------------------|

                                                          
--2-------------------------|--------------------2-------|
-----------0L-0-------------|--3-------------------------|
--------2-------------------|--------------0-------------|
-----2----------------------|-----2--4-------------------|
--0-------------------------|--0-------------------------|
----------------------------|----------------------------|

                                                          
----------------------------|--0-------------------------|
--1-------------------------|----------------------------|
----------------------------|--------0-----------0-------|
-----2--3--2-----2--3--2----|-----4-----4-----4-----4----|
--0-----------0-------------|--0-----------0-------------|
----------------------------|----------------------------|

                                                          
--2-------------------------|----------------------------|
--------0-----------0-------|--3-------------------------|
-----2-----2-----2-----2----|----------------------------|
----------------------------|-----2--4--2-----2--4-------|
--0-----------0-------------|--0-----------0-------------|
----------------------------|----------------------------|

  ^                            ^       ^                          
--0-----------0-----3-------|--2----|--0-------------------------|
--1--3--1--3----------------|--3----|--2--3--1--0-----------0----|
--2-------------------------|--4----|--------------2--1--2-------|
--2-------------------------|--0----|----------------------------|
--0-------------------------|--0----|--0-------------------------|
----------------------------|-------|----------------------------|

                               ^                            ^     
----------------------------|--0-----------0-----3-------|--7----|
--1-------------------------|--1--3--1--3----------------|--5----|
--2-------------------------|--2-------------------------|--4----|
--4--------------2--3-------|--2-------------------------|--0----|
--0-----------0-------------|--0-------------------------|--0----|
----------------------------|----------------------------|-------|

  ^                                                                        
--0-------------------------|--------0--3----|----------------------------|
--2--3--1--0-----------0----|--1--3-----5----|--1-----1-----1-----1-------|
--3-----------2--1--2-------|--2-------------|----------------------------|
--3-------------------------|--2-------------|-----2--3--2-----2--3--2----|
--0-------------------------|--0-------------|--0-----------0-------------|
----------------------------|-----------4----|----------------------------|

                                                          
--0-----0-----0-----0-------|--2-----2-----2-----2-------|
----------------------------|--------0-----------0-------|
--------0-----------0-------|-----2-----2-----2-----2----|
-----4-----4-----4-----4----|----------------------------|
--0-----------0-------------|--0-----------0-------------|
----------------------------|----------------------------|

                                                          
----------------------------|--0-----------0-----3-------|
--3-----3-----3-----3-------|-----3--1--3--1-----5-------|
----------------------------|--------2--4----------------|
-----2--4--2-----2--4--2----|-----2-----------2--3--2----|
--0-----------0-------------|--0-------------------------|
----------------------------|----------------------------|

                                                          
--2-------------------------|--0--------------------0----|
-----------------------0----|-----3--1--0-----0--1--0----|
--------0-----------0-------|--------------2--1--2-------|
-----2-----2-----4----------|-----------2-----------2----|
--------------0-------------|--0--2--3-------------------|
--1-------------------------|----------------------------|

                                                          
----------------------------|--0-----------0-----3-------|
----------------------------|-----3--1--3-----0--4-------|
--2-----------1-----1-------|--------------2--------4----|
--------0--------2-----0----|-----------2----------------|
--0--3-----2----------------|--0--2--3-------------------|
----------------------------|----------------------------|

                                                          
--2--------------------0----|----------------------------|
-----------1-----3-----3----|--3--1--0-----------0-------|
--------2-----------2-------|-----------2--1--2-----1----|
-----1-----------------0----|----------------------------|
--0-----------0-------------|----------------------------|
----------------------------|--1-----------2-------------|

                                                     
----------------------------------------------------|
--------------0-----------1--0----------------------|
--2-----------------2-----------2-----1-------------|
----------------------------------------------------|
--0-------------------------------------------------|
--------------------------------------4-------------|

                                                          
--------------------1--0----|----------------------------|
-----0--1--3--1-------------|--4-----------0-----1-------|
--2--------------2----------|----------------------------|
----------------------------|-----------0--------2--3----|
--------3--2-----2--3-------|-----2--3-----2-------------|
--1-----------1-------------|--1-------------------------|

                                                          
-----------0----------------|--2--------3----------------|
--3-------------------------|----------------------------|
--------------0-------------|--------------2-------------|
-----0--2--0-----0--2--0----|-----0--2--0-----0--2--0----|
----------------------------|----------------------------|
--3-------------------------|--3-------------------------|

                                                     
--5-----------------3-----------------7-------------|
--------------------------0-------------------------|
--------------2-----------------5-----4-----0-------|
--------0-----------0--------------------7----------|
----------------------------------------------------|
--3-------------------------------------------------|

                                                          
--2--------3----------------|--------------3-----0--1----|
----------------------------|-----0--1--3-----3----------|
----------------------------|--2-------------------------|
--------------0--2--4-------|-----2-----------------3----|
-----2--3--2----------------|--------3--2----------------|
--3-------------------------|--1-----------1-------------|

                                                            ^     
----------------------------|--0-------------------------|-------|
--3-----3-----3-----0--3----|--------------------1--0----|--1----|
-----4-----4----------------|--------0--2--0-------------|--3----|
--------------1-------------|--2--4-----------2----------|--2----|
----------------------------|--2-------------------------|--1----|
--2-------------------------|--0-------------------------|--0----|

                                                     
----------------------------------------------------|
--0--------0--------0-----3--------3--------3-------|
-----2--------2--------------2--------2--------2----|
--0-----2--------2-----2--------2--------2----------|
----------------------------------------------------|
--2-------------------------------------------------|

                                                     
--------------------------------3--------3----------|
--1--------1--------1--------1--------1-----1-------|
-----2--------2-----------2--------2-----------2----|
--------2--------2-----2----------------------------|
----------------------------------------------------|
--2-------------------------------------------------|

                                                     
--------------------------------1-------------------|
--0--------0--------0--------1-----1-----1----------|
-----0--------0-----------------------0-----0-------|
--------1--------1--------3--------------------3----|
----------------------------------------------------|
--1--------------------------------1----------------|

                                                     
--------------------------1-------------------------|
-----------------1L----1L-1--1----------------------|
--2-----------2--------2-----------2--0-------------|
--------3--------------------------------3--2--1----|
-----3-----3----------------------------------------|
--1-------------------------------------------------|

                                                     
----------------------------------------------------|
--0--------0--------0-----3--------3--------3-------|
-----2--------2--------------2--------2--------2----|
--0-----2--------2-----2--------2--------2----------|
----------------------------------------------------|
--2-------------------------------------------------|

                                                     
--------------------------5--------5-----------5----|
--1--------1--------1--------3-----------3----------|
-----2--------2-----------------2-----------2-------|
--------2--------2-----2----------------------------|
----------------------------------------------------|
--2-------------------------------------------------|

                                                     
--2--------2--------2-----------2--2----------------|
-----3--------3-----3--------3--------3-------------|
--------2--------2--2-----2--------------2--0-------|
--4--------------------------------------------0----|
----------------------------------------------------|
--2-------------------------------------------------|

                                      v              
--2-----------2-----------1-------------------------|
-----0-----0-----------0----------------------------|
--------2-----------------------------0-------------|
--1-----------------2-----------------0-------------|
--------------------------------------2-------------|
--2-----------------------------------0-------------|

                                                          
----------------------------|--0-----0-----0-----0-------|
--1-----1-----1-----1-------|--0-------------------------|
--2-------------------------|--------0-----------0-------|
-----2--3--2-----2--3--2----|-----4-----4-----4-----4----|
--0-----------0-------------|--0-----------0-------------|
----------------------------|----------------------------|

                                                          
--2-----2-----2-----2-------|----------------------------|
--1-----0-----------0-------|--3-----3-----3-------------|
-----2-----2-----2-----2----|--4-------------------------|
----------------------------|-----2--4--2-----2--4-------|
--0-----------0-------------|--0-----------0-------------|
----------------------------|----------------------------|

                                                          
----------------------------|--0-------------------------|
----------------------------|-----------3L-3-------------|
--5--------5L-5-------------|--------0-------------------|
-----6--7-------------------|-----4----------------------|
--0-------------------------|--0-------------------------|
----------------------------|----------------------------|

                               ^       >
--2-------------------------|-------|-------||
-----------0L-0-------------|--3L---|--3----||
--------2-------------------|--3L---|--3----||
-----2----------------------|--2L---|--2----||
--0-------------------------|--1L---|--1----||
----------------------------|--0L---|--0----||
Login or Register to remove this ad.

2 comments on Chasing the Black Caped Man

nice

nice

Awesome (:

Awesome (: