Ads

Cait Sith's Theme (SongeLeReveur Version) (Final Fantasy VII) Bass Tab

Submitted: Jul 23, 2010 by ForestMarth

5
Average: 5 (1 vote)
Download | Listen
Game: Final Fantasy VII
Composer(s): Nobuo Uematsu
Style: 2 or more instruments, Arrangement, Transcription
Series: Final Fantasy

AutoScroll: Slow | Medium | Fast
                    Final Fantasy VII - Cait Sith's Theme                       

Composed by : Nobuo Uematsu

Arranged by : Songe Le Rêveur

Tabbed by : ForestMarth

Platform : PlayStation


I'm sorry but rythm is not respected (here and in the Guitar Pro file).
Don't hesitate to take this tab and put it rythm ! :-)
Look at SongeLeReveur video to hear the rythm.



Bass 1



              
G||--17----17----16----15---------------------------
D||--18----18----18------------18----15-------------
A||-------------------------------------------------
E||-------------------------------------------------


        
--17----17----16----18g20------18----------17----15----
--18----18----18---------------------18----------------
-------------------------------------------------------
-------------------------------------------------------


           
--------17---------------17----17----16----15---------------------------
--16---------------------18----18----18------------18----15-------------
------------------------------------------------------------------------
------------------------------------------------------------------------


        
--17----17----15-------------------------------------------------------------
--18----18----18-----------18----17----16----15------------------------------
-----------------------------------------------------15----18----17----16----
-----------------------------------------------------------------------------


       
--------------16----15-------------------------------
--15----18------------------18----14s----15----15----
-----------------------------------------------------
-----------------------------------------------------


        
----------------------------------------------------
--16----17----18----15------16----17----18----17----
----------------------------------------------------
----------------------------------------------------


        
--------------/20----18------------------------------
--16----14-------------------18----17----16----15----
-----------------------------------------------------
-----------------------------------------------------


            
----------------------------------------16----15------18----17-------------
----------------------------15----18---------------------------------------
--15----18----17----16-----------------------------------------------------
---------------------------------------------------------------------------


       
----------------------------------------------------
--15----16----17----18------15----16----17----18----
----------------------------------------------------
----------------------------------------------------


        
----------------------------------------------------
--17----16----15------------------------------15----
--------------------15------18----15----18----------
----------------------------------------------------


        
----------------------------------------------------
--18----17----16----15------------------------------
----------------------------15----18----17----16----
----------------------------------------------------


        
--------------16----15-------------------------12----
--15----18------------------18----14s----15----15----
-----------------------------------------------------
-----------------------------------------------------


        
--13----13-----------------20s----21----17----------
--15----11---------17-------------------------20----
----------------------------------------------------
----------------------------------------------------


        
----------------------------------13----16----------
--17----16----15----13------15----------------15----
----------------------------------------------------
----------------------------------------------------


        
--13----16----15----13------------------------17----
----------------------------13----14----15----18----
----------------------------------------------------
----------------------------------------------------


         
--15------------------------15----17----15----20\----
--17----18----15----18------17----18----17----20\----
-----------------------------------------------------
-----------------------------------------------------


            
--17----17----16----15---------------------------
--18----18----18------------18----15-------------
-------------------------------------------------
-------------------------------------------------


        
--17----17----16----18g20------18----------17----15----
--18----18----18---------------------18----------------
-------------------------------------------------------
-------------------------------------------------------


            
--------17---------------17----17----16----15---------------------------
--16---------------------18----18----18------------18----15-------------
------------------------------------------------------------------------
------------------------------------------------------------------------


        
--17----17----15-----------------17----------18------------17----------22----
--18----18----18-----------20----------20------------20----------20----------
-----------------------------------------------------------------------------
-----------------------------------------------------------------------------


        
--------17----18----17------------------------------
--20------------------------20----17----20----20----
----------------------------------------------------
----------------------------------------------------


         
--19----22----22----20------20----19----19----20h----
--20----20----20----20------20----20----20-----------
-----------------------------------------------------
-----------------------------------------------------


       
--19p----18s----16----18------20----------------------
------------------------------------18----18----20----
------------------------------------------------------
------------------------------------------------------


        
----------------------------------17----17----20----
--21----20----18------------18----18----18----18----
--------------------20------------------------------
----------------------------------------------------


        
--20----18----18----17--17----------17----------18----
--18----18----18----18--18----20----------20----------
------------------------------------------------------
------------------------------------------------------


        
--------17----------22------------17----18----17----
--20----------20------------20----------------------
----------------------------------------------------
----------------------------------------------------


        
----------------------------19----22----22----20----
--20----17----20----20------20----20----20----20----
----------------------------------------------------
----------------------------------------------------


       
--20----19----19------------------------------------
--20----20----20------------------14----17----15----
--------------------15------17----------------------
----------------------------------------------------


        
--------------15----12------------------12----------
----------------------------13----------------12----
--17----13------------------------14----------------
----------------------------------------------------


        
-------------------------------------------------17----17----16----18g20----
--15----13---------------------------------------18----18----18-------------
--------------15----13------15----------------------------------------------
----------------------------------------------------------------------------


        
--18----------17----15------------17---------------17----17----16----15----
--------18------------------16---------------------18----18----18----------
---------------------------------------------------------------------------
---------------------------------------------------------------------------


        
-------------------------17----17----15-----------------------------------
--18----15---------------18----18----18-----------18----17----16----15----
--------------------------------------------------------------------------
--------------------------------------------------------------------------


        
----------------------------------------16----15----
----------------------------15----18----------------
--15----18----17----16------------------------------
----------------------------------------------------


        
-----------------------------------------------------
--18----14s----15----15------16----17----18----15----
-----------------------------------------------------
-----------------------------------------------------


        
----------------------------------------/20----18----
--16----17----18----17------16----14-----------------
-----------------------------------------------------
-----------------------------------------------------


        
----------------------------------------------------
--18----17----16----15------------------------------
----------------------------15----18----17----16----
----------------------------------------------------


        
--------------16----15------18----17---------------------------------------
--15----18-----------------------------------------15----16----17----18----
---------------------------------------------------------------------------
---------------------------------------------------------------------------


        
----------------------------------------------------
--15----16----17----18------17----16----15----------
----------------------------------------------15----
----------------------------------------------------


        
----------------------------------------------------
--------------------15------18----17----16----15----
--18----15----18------------------------------------
----------------------------------------------------


        
----------------------------------------16----15----
----------------------------15----18----------------
--15----18----17----16------------------------------
----------------------------------------------------


        
---------------------12------13----13---------------
--18----14s----15----15------15----11---------17----
----------------------------------------------------
----------------------------------------------------


        
--20s----21----17------------------------------------
---------------------20------17----16----15----13----
-----------------------------------------------------
-----------------------------------------------------


        
--------13----16------------13----16----15----13----
--15----------------15------------------------------
----------------------------------------------------
----------------------------------------------------


        
--------------------17------15----------------------
--13----14----15----18------17----18----15----18----
----------------------------------------------------
----------------------------------------------------


               
--15----17----15----20\------22-----------------|
--17----18----17----20\------22-----------------|
------------------------------------------------|
------------------------------------------------|




Bass 2



          
G||---------------------------------------------------------------------
D||---------------------------------------------------------------------
A||--8--------------11------8---------------------5g6----4---------3----
E||-------8----9-----------------8----9-----------------------4---------


       
-------------------------------------------------------------------
-------------------------------------------------------------------
--1---------3-----------8--------------11------8-------------------
-------2---------------------8----9-----------------8----9----9----


        
----------------------------------------------------------------------
----------------------------------------------------------------------
----------------------------9----9---------------8--------------11----
--11----11----12----12--------------------------------8----9----------


       
--------------------------------------------------------------------
--------------------------------------------------------------------
--8---------------------12----9----7-----------8--------------11----
-------8----9---------------------------------------8----9----------


       
-------------------------------------------------------------------
-------------------------------------------------------------------
--8---------8-----------8--------------11------8----6----5----4----
-------8---------8-----------8----9--------------------------------


       
-----------------------------------------------------------------------
-----------------------------------------------------------------10----
--3--------------------------11----8----10------11----10----8----------
------------9----9------8----------------------------------------------


       
------------------------------------------------------------------------
------------------------------------------------------------------------
--9----10--------------------8--------------11------8-------------------
-------------8--8--10--12---------8----9-----------------8----9---------


        
---------------------------------------------------------------------
---------------------------------------------------------------------
--5g6----4---------3------1---------3-----------8--------------11----
--------------4----------------2---------------------8----9----------


           
---------------------------------------------------------------------
---------------------------------------------------------------------
--8-----------------------------------------------9----9-------------
-------8----9----9------11----11----12----12-------------------------


       
-------------------------------------------------------------------
-------6----5------------------------------------------------------
-----------------8------5----6----8--------------------------------
--6------------------------------------6--6----6----6----6----6----


      
-------------------------------------------------------------------
-------4----3------------------------------------------------------
-----------------6------3----4----6--------------------------------
--4------------------------------------4--4----4----4----4----4----


      
---------------------------------------------------------------------
-------6----5--------------------------------------------------------
-----------------8------5----6----8----------------------------------
--6------------------------------------6--6----6--6--6----6--6--6----


       
------------------------------------------------------------------
------------------------------------------------------------------
-----------------------------2----5----3----------------4----3----
--8----6----4----3------3---------------------3----4--------------


       
-------------------------------------------------------------------
-------------------------------------------------------------------
--8--------------------5g6----4---------3------1---------3---------
-------9---------------------------4----------------2--------------


       
-----------------------------------------------------------------------
-----------------------------------------------------------------------
--8--------------11------8---------------------------------------------
-------8----9-----------------8----9----9------11----11----12----12----


       
------------------------------------------------------------------
------------------------------------------------------------------
--9----9---------------8--------------11------8-------------------
----------------------------8----9-----------------8----9---------


        
--------------------------------------------------------------------
--------------------------------------------------------------------
--12----9----7-----------8--------------11------8---------8---------
------------------------------8----9-----------------8---------8----


       
-------------------------------------------------------------------
-------------------------------------------------------------------
--8--------------11------8----6----5----4------3-------------------
-------8----9--------------------------------------------9----9----


     
----------------------------------------------------------------------------
-------------------------------------------10-------------------------------
-------11----8----10------11----10----8------------9----10------------------
--8-----------------------------------------------------------8--8--10--12--


                                                                      
--------------------|
--------------------|
--8-----------------|
--------------------|





Duration Legend
---------------
W - whole
H - half
Q - quarter
E - 8th
S - 16th
T - 32nd
X - 64th
. - note dotted
|-n-|  - n-tuplets


Tablature Legend
----------------
L - tied note
x - dead note
g - grace note
(n) - ghost note
> - accentuded note
NH - natural harmonic
AH - artificial harmonic
TH - tapped harmonic
SH - semi harmonic
PH - pitch harmonic
h - hammer on
p - pull off
b - bend
br - bendRelease
pb - preBend
pbr - preBendRelease
brb - bendReleaseBend
\n/ - tremolo bar dip
\n - tremolo bar dive
-/n - tremolo bar Release up
/n\ - tremolo bar inverted dip
/n - tremolo bar return
-\n - tremolo bar Release down
S - shift slide
s - legato slide
/ -  slide into from below or out of upwards
\ -  slide into from above or out of downwards
~ - vibrato
W - wide vibrato
tr - trill
TP - tremolo picking
T - tapping
S - slap
P - pop
< - fade in
^ - brush up
v - brush down
Login or Register to remove this ad.

1 comment on Cait Sith's Theme (SongeLeReveur Version)

Nice! Great job ForestMarth!

5

Nice! Great job ForestMarth!