Ads

Cait Sith's Theme (Final Fantasy VII) Guitar Tab

Submitted: Mar 01, 2014 by TheDoomOfAllFires (Last updated: Oct 22, 2014)

5
Average: 5 (8 votes)
Download | Listen
Game: Final Fantasy VII
Composer(s): Nobuo Uematsu
Style: Arrangement, Fingerstyle
Series: Final Fantasy

AutoScroll: Slow | Medium | Fast
"Cait Sith's Theme" - Final Fantasy VII
Composer : Nobuo Uematsu
Arrangement : TheDoomOfAllFires, based on Lonlonjp's arrangement
BPM : 120
Tuning : Standard

                                                             
E |----------------------------|----------------------------|
B |--------0--------0----------|----------------------------|
G |--------0--------0-----3L---|--3--------------2h-0-------|
D |--------2--------4-----2L---|--2--------------------1----|
A |-----------0h-2-----x--3L---|--3-------------------------|
E |--0-------------------------|----------------------------|

                                                          
----------------------------|----------------------------|
--------0--------0----------|-----3h-1-----0--------0----|
--------0--------0-----3----|-----------0-----2----------|
--------2--------4-----2----|--------------------3-------|
-----------0h-2-----x--3----|----------------------------|
--0-------------------------|----------------------------|

                                                          
----------------------------|----------------------------|
--------0--------0----------|----------------------------|
--------0--------0-----3L---|--3--------------2h-0-------|
--------2--------4-----2L---|--2--------------------1----|
-----------0h-2-----x--3L---|--3-------------------------|
--0-------------------------|----------------------------|

                                                          
----------------------------|----------------------------|
--------0--------0----------|----------------------------|
--------0--------0-----2L---|--2-------------------------|
--------2--------4-----2L---|--2-----0--0--1--1--3--3----|
-----------0h-2-----x--3L---|--3--3----------------------|
--0-------------------------|----------------------------|

*doomy takes acid here and all of the music just, like, expands, man*

                                                                             
--------------------3h----2h----1-----0-------------------------------------|
-----------------------------------------------0--------3h-------2----------|
--------------------------------------0-------------------------------------|
--------------------2-------------------------------------------------------|
-----------2----------------------------------------------------------------|
--0-------------------------------------------------------------------------|

                             
-----0--3s-6~----5h-3-------|
--1--------------------4----|
--0-----------------0-------|
----------------------------|
--3-----------x-------------|
----------------------------|

                                                                                
--0-----------------------------------0h----------1h----------2h----------3-----
--------------------------------------0-----------------------------------------
--------------------------------------0-----------------------------------------
--------------------------------------------------------------------------------
--------------------x-----------------------------------------------------------
--0-----------------------------------------------------------------------------

                                                                     
---------------------3~---------------------------------------------|
--------------------------------------------------------------------|
--------------------------------------------------------------------|
------------------------------------------------0-------------------|
--------------------------------------------------------------------|
--------------------------------------------------------------------|

                                                                             
--0h----1h----2-----3h----2h----1h----0-------------------------------------|
-----------------------------------------------3-----------------1----------|
-----------------------------------------------0----------------------------|
----------------------------------------------------------------------------|
--3-------------------------------------------------------------------------|
----------------------------------------------------------------------------|

                                                                             
--------------------3h----2h----1-----0-------------------------------------|
-----------------------------------------------0--------3h-------2----------|
--------------------------------------0-------------------------------------|
--2-----------------2-------------------------------------------------------|
-----------2----------------------------------------------------------------|
--0-------------------------------------------------------------------------|

                             
-----0--3s-6-----5--6--8s---|
--1-------------------------|
--0-----------0--5----------|
----------------------------|
--3-------------------------|
----------------------------|

                                                                             
--7-----------------0h----1h----2-----3~------------------------------------|
--------------------0-------------------------------------------------------|
--------------------------------------0-------------------------------------|
-----------------------------------------------------------------0----------|
-----------2----------------------------------------------------------------|
--0-------------------------------------------------------------------------|

                                                                             
--0h----1h----2-----3h----2h----1-----0--------0h-------6--------0----------|
----------------------------------------------------------------------------|
----------------------------------------------------------------------------|
----------------------------------------------------------------------------|
--3-------------------------------------------------------------------------|
----------------------------------------------------------------------------|

                                                                             
--------------------3h----2h----1-----0-------------------------------------|
-----------------------------------------------0--------3h-------2----------|
--------------------------------------0-------------------------------------|
--2-----------------2-------------------------------------------------------|
-----------2----------------------------------------------------------------|
--0-------------------------------------------------------------------------|

                                                                     
-----0--3s-6-----5--3-------|--0--2----|--3-------------------------|
--1--------------------4----|--0--0----|--5-----------1-------------|
--0-----------0--5----------|--0-------|--------------0-------------|
----------------------------|-----0----|----------------------------|
--3-------------------------|----------|--4-----------3--------0----|
----------------------------|----------|----------------------------|

                                                                                
--------------------------------------0-----------------------------------------
--------------------------------------2-----------4h----------0-----------------
--4-----------------------------------------------------------------------2-----
--4-----------------------------------4-----------------------------------------
--2-----------------2-----------------------------------------------------------
--------------------------------------------------------------------------------

                                                                     
--------------------------------------------------------------------|
--------------------------------------------------------------------|
--------------------------------------------------------------------|
------------4-----------------3-----------2-----------0-------------|
--------------------------------------------------------------------|
--------------------------------------------------------------------|

                                                                             
----------------------------------------------------------------------------|
--------------0-----------------0-------------------------------------------|
--------------------------------------2h-------0----------------------------|
--------2-----------------2-----------1-----------------0h-------1----------|
--3-----------------3-----------------2-----------------2-------------------|
----------------------------------------------------------------------------|

                                                     
----------------------------------------------------|
--------0-------------------------------------------|
--------0--------------2----------------------------|
--------2--------------2----------------------------|
--------------x--------3--------------------3h-0----|
--0--------------------2----------------------------|

                                                                                
--------------------------------------------------------------------------------
--------------------------------------------3-----------------------3h-------1--
--0-----------------------0-----------------0-----------------------------------
--------------2-----------0-----------------------------------------------------
--3-----------------------------------------------------------------------------
--------------------------------------------------------------------------------

*coming off the trip now...*

                                                                               
--------------------|----------------------------|----------------------------|
--------------------|-----0----------------------|--4-------------------------|
------0-------------|-----0--------2-------------|--4-------------------------|
--------------------|-----2--------2-------------|----------------------------|
--------------------|--------------3--------0----|--2-----2-----4-----6--x----|
--------------------|--0-----------2-------------|----------------------------|

                                                          
----------------------------|----------------------------|
--------0--------0----------|----------------------------|
--------0--------0-----3L---|--3--------------2h-0-------|
--------2--------4-----2L---|--2--------------------1----|
-----------0h-2-----x--3L---|--3-------------------------|
--0-------------------------|----------------------------|

                                                          
----------------------------|----------------------------|
--------0--------0----------|-----3h-1-----0--------0----|
--------0--------0-----3----|-----------0-----2----------|
--------2--------4-----2----|--------------------3-------|
-----------0h-2-----x--3----|----------------------------|
--0-------------------------|----------------------------|

                                                          
----------------------------|----------------------------|
--------0--------0----------|----------------------------|
--------0--------0-----3L---|--3--------------2h-0-------|
--------2--------4-----2L---|--2--------------------1----|
-----------0h-2-----x--3L---|--3-------------------------|
--0-------------------------|----------------------------|

                                                          
----------------------------|----------------------------|
--------0--------0----------|----------------------------|
--------0--------0-----2L---|--2-------------------------|
--------2--------4-----2L---|--2-----0--0--1--1--3--3----|
-----------0h-2-----x--3L---|--3--3----------------------|
--0-------------------------|----------------------------|

                                                          
----------------------------|--0-------------------------|
--------0-----1-----0-------|--------0h-1--0-------------|
-----2-----2-----2-----2----|-----2-----------2-----2----|
--2-----2-----3-----3-------|--4-----4-----3-----3-------|
--0-------------------------|----------------------------|
----------------------------|----------------------------|

*whoop here we go again...*

                                                     
--------------------------0-----------0--------0----|
--2-----------2--------2--2-----------2--------2----|
--2-----------2--------2-----------------------2----|
--------------2-------------------------------------|
--0-----------------------0-------------------------|
----------------------------------------------------|

                                                     
----------------------------------------------------|
--3-----------3--------3--2-----------2-------------|
--2-----------2-----------2-----------2-------------|
--3-----------------------2-----------2-------------|
--0-----------------------0-------------------------|
----------------------------------------------------|

                                                                             
----------------------------------------------------------------------------|
-----------3--------3h----2h----1--------------1--------3-------------------|
--------------------------------------3--------------------------0----------|
----------------------------------------------------------------------------|
--2-----------------2-----------------3-----------------3-------------------|
----------------------------------------------------------------------------|

                             
----------------------------|
----------------------------|
-----0--2h-3--2--0-----0----|
--0-----0-----------2-------|
--------------3-----3-------|
----------------------------|

                                                     
----------------------------------------------------|
--0-----------0--------0--3-----------3--------3----|
--2-----------2-----------0-----------0-------------|
--0-----------------------0-------------------------|
----------------------------------------------------|
--3-----------------------3-------------------------|

                                                     
----------------------------------------------------|
--1-----------1--------1--0-----------0-----0-------|
--0-----------0-----------2-----------2-------------|
--0-----------------------0-------------------------|
----------------------------------------------------|
--3-----------------------3-------------------------|

*moment of clarity*
                                                          
----------------------------|--0-------------------------|
--------0-----1-----0-------|--------0h-1--0-------------|
-----2-----2-----2-----2----|-----2-----------2-----2----|
--2-----2-----3-----3-------|--4-----4-----3-----3-------|
--0-------------------------|----------------------------|
----------------------------|----------------------------|

*aaahhh...*

                                                     
--------------------------0-----------0--------0----|
--2-----------2--------2--2-----------2--------2----|
--2-----------2--------2-----------------------2----|
--------------2-------------------------------------|
--0-----------------------0-------------------------|
----------------------------------------------------|

                                                     
----------------------------------------------------|
--3-----------3--------3--2-----------2-------------|
--2-----------2-----------2-----------2-------------|
--3-----------------------2-----------2-------------|
--0-----------------------0-------------------------|
----------------------------------------------------|

                             
-----------2--0--------5~---|
--0--2--4-----2--2----------|
--------4-----------2-------|
----------------------------|
--2-----------0-------------|
----------------------------|

                                                     
--------2-----------------------2-----------0-------|
--------------3-----------------------2-------------|
-----------------------3----------------------------|
-----------------------4----------------------------|
----------------------------------------------------|
--3--------------------2----------------------------|

                                                                             
----------------------------------------------------------------------------|
--3h----0-----------0--------0-----------------0----------------------------|
--------------2--------------------------------------------------3L---------|
-----------------------------------------------4-----------------2L---------|
--2-----------------------------------2-----------------x--------3L---------|
----------------------------------------------------------------------------|

*coming back off...*

                                                          
----------------------------|----------------------------|
----------------------------|--------0--------0----------|
--3--------------2h-0-------|--------0--------0-----3----|
--2--------------------1----|--------2--------4-----2----|
--3-------------------------|-----------0h-2-----x--3----|
----------------------------|--0-------------------------|

                                                          
----------------------------|----------------------------|
-----3h-1-----0--------0----|--------0--------0----------|
-----------0-----2----------|--------0--------0-----2L---|
--------------------3-------|--------2--------4-----2L---|
----------------------------|-----------0h-2-----x--3L---|
----------------------------|--0-------------------------|

                             
----------------------------|
----------------------------|
--2-------------------------|
--2-----0--0--1--1--3--3----|
--3--3----------------------|
----------------------------|

           ^
-----------3L-------3-------------------------------||
-----------3L-------3-------------------------------||
-----------1L-------1-------------------------------||
-----------2L-------2-------------------------------||
----------------------------------------------------||
--0-------------------------------------------------||

*shakes head...what a ride!!*


Legend
L - tied note
x - dead note
h - hammer on/pull off
b - bend
s - slide
~ - vibrato
g - ghost note
> - accentuated note
t - trill
M - palm mute
. - staccato
P - popping (bass)
S - slapping (bass)
+ - tapping
W - wide vibrato
< - fade in
w - whammy bar
= - tremolo picking
v - brush up
^ - brush down
V - pick stroke up
n - pick stroke down
Login or Register to remove this ad.

11 comments on Cait Sith's Theme

Great Cat Shi… I mean Cait Sith Tab!

5

Really though, good stuff :)

Thanks ! And yeah, you said

Thanks !
And yeah, you said it : Cat Shit.
Worst FFVII character, by far (still better than Quina from FFIX though, haha).

Seriously, they must have

Seriously, they must have been on some good shit to have came up with both of those character designs. It's a shame they didn't discard of them though after they returned to reality...

Haha yeah, they probably were

Haha yeah, they probably were high as fuck.

Okay this is...what in the

Okay this is...what in the world. Can this be cleaned up?

I added editorial comments in the tab for teh funniez

It's just the usual Guitar

It's just the usual Guitar Pro 6 output. GP6 is :-(, in my opinion

Dude, I don't do drugs, I

Dude, I don't do drugs, I promise :o

Anyway, thanks for commenting. Keep going, I have a shitload of tabs on this site, haha (and a shitload of old tabs that reaaaaaaaaaally need major improvements too... I was young, back then *mad* Don't be too harsh with these :'( ) :p
And I saw the suggestions you made on some tabs. I'll check that out as soon as I have some spare time.

Yeah, I think I noticed a

Yeah, I think I noticed a general improvement over time, like the tabs you did more recently turned out better on average? But then, you were popping out some solid stuff back in '09 too.

The drugs bit was just kidding around because I was like, okay, the tab looked normal for a while, but what the eff happened?

Then Auriplane told me all about how
tabs' life get flipped, turned upside down,
and have you thinking that your mind is playing tricks,
but nope, it's just a tab output with GP6.

Glad to know that you'll be seeing all the comments! There's a lot of positive that I have had to say about your work. :-)

I do think that in cases where outputting with GP6 resulted in measures being all different sizes, the tabs could definitely use some hand-editing. Not everybody has GP6 and it's really convenient for people to be able to just look at the tab on the website itself and read it.

Now, obviously it's not like you *owe* it to anybody to do this, but if you really want your tab to reach the masses, then it's a good step to take imo. It also increases the likelihood that I will record a given tab. ;-) haha

In GP6 it figures out the

In GP6, for each measure, it figures out the exact number of subdivisions necessary to place all the notes and rests on a grid, then gives each subdivision a minimum of 3 columns (usually exactly that). That way, in theory at least, stuff is spaced out proportionate to rhythm. (You'll notice they got rid of the note value indicators above the staff from GP5 which made it possible to sightread tabs).

It also adds a 2-column margin to either side, which makes it more difficult to see the subdivisions, and it splits up extremely wide measures across multiple lines, as you can see here.

It's not a very good algorithm.

Haha thanks ^^ And yeah, when

Haha thanks ^^
And yeah, when exported in txt format through GP6, these tabs looks like shit, tbh.
That's why I always include a pdf in the archive.
Anyway, for my few latest arrangements, I converted the tabs from GP6 to GP5 file, and then exported them to txt file. This is much more clearer than before.

I kind of loathe guitar pro

I kind of loathe guitar pro for what it could be, but accept it for what it is.