Ads

Battle Theme (Final Fantasy VII) Ukulele Tab

Submitted: Jan 08, 2018 by ark626

5
Average: 5 (1 vote)
Download | Listen
Game: Final Fantasy VII
Composer(s): Nobuo Uematsu
Style: Transcription
Series: Final Fantasy

This song is also called Fighting

AutoScroll: Slow | Medium | Fast
                                          Battle Theme
                                       Final Fantasy VII 
                                   Composed by Nobuo Uematsu
                                Tabbed by the Ark626 08.01.2018

|----07--07--07--07--07--07--07----------07--02--05------07--05--08------07--07--07--07--07--07--07-|
|----------------------------------------------------10---------------------------------------------|
|---------------------------------------------------------------------------------------------------|
|----------------------------------------07----------10---------------------------------------------|


---------09----13----12----07------07--07--07--07--07--07----------05--07--02--07--00--07------07---|
---------10----10----10----07-----------------------------------------------------------------------|
---------11-----------------------------------------------------------------------------------------|
---------------11----11--------------------------------------------------------------------00-------|


---------07--------07--05----02----05----08----07----------09--------------10----------12---------|
-----02------00--------------------------------07--00--00------00------00------00--00------00--00-|
--------------------------------------------------------------------------------------------------|
--------------------------------------------------------------------------------------------------|


-02------05----------03--03--09--03------03--10--03--03--12--03--03--02--02--05----10--00--00--02---|
-----00------00--12----------------------------------------------------------------------------02---|
-----------------12----------------------------------------------------------------09----------02---|
-----------------12----------------------------------------------------------------09---------------|


-00------00------00--00--12--00--02----05------------07--07--07------07--07--07----07--09--10--12-|
-------------07----------12------02----------07---------------------------------------------------|
-------------07----------12------02----------07---------------------------------------------------|
-------------07-----------------------------------------------------------------------------------|


-10--09--12--10------10--07--12------07--10--12--07------10----10--10----07----------09-------------|
-----------------12--12--07--12------07--12--12--07----------------10----07--00--00------00------00-|
-----------------11--11--07--11------07--11--11--07-------------------------------------------------|
-----------------12--11------12----------11--12----------10----10-----------------------------------|


---10----------12----------02------05----------03--03--09--03------03--10--03--03--12--03--03--02-|
-------00--00------00--00------00------00--12-----------------------------------------------------|
-------------------------------------------12-----------------------------------------------------|
-------------------------------------------12-----------------------------------------------------|


-02--05----10--00--00--02--00------00------00--00--12--00--02----05------------07--07--07------07-|
-----------------------02--------------07----------12------02----------07-------------------------|
-----------09----------02--------------07----------12------02----------07-------------------------|
-----------09--------------------------07---------------------------------------------------------|


-07----07----07--09--10--12--10--09--12--10------10--07--12------07--10--12--07------10----10--10---|
---------------------------------------------12--12--07--12------07--12--12--07----------------10---|
---------------------------------------------11--11--07--11------07--11--11--07---------------------|
---------------------------------------------12--11------12----------11--12----------10----10-------|


-07--07--07--07--07------07--07--07--07--07--09--10--12--10--09--12--10------10--07--12------07--10-|
-------------------------------------------------------------------------12--12--07--12------07--12-|
-------------------------------------------------------------------------11--11--07--11------07--11-|
-------------------------------------------------------------------------12--11------12----------11-|


-10----07--05--07--09--10--09--10--12--03--02--12--02--12------10--07--09--10----------02----05---|
-12--------------------11------10------------------------------------------------12---------------|
-11------------------------------------------------------------------------------12---------------|
---------------------------------------------------------------------------------12---------------|


-----00--02--03--00------02--03--07--10--00--09--10--00--10--12--02--12--09--04--05--07------05--03-|
-12------------------------------------------------------------------12-----------------------------|
-12------------------------------------------------------------------12-----------------------------|
-12-------------------------------------------------------------------------------------------------|


-02--05----10--12--02--03--02--05--12----------02--------02--12----12--02--03--05--07--09--10--07---|
---------------------------------------05------------------------------------------------------07---|
-----04---------------------------------------------------------------------------------------------|
---------------------------------------05------02--------02-----------------------------------------|


-07--10----09------12----10--02----12--03----02--10--07--------07--10--------09--12----10--02----12-|
---------------------------------------------------------12-----------------------------------------|
---------------------------------------------------------12-----------------------------------------|
---------------------------------------------------------12-----------------------------------------|


-03------02--10--07--12----07--10------11--09--12----10--02----12--03----02--10--05--07----07-----|
---------------------10--------------------------------------------------------------07-----------|
--------------------------------------------------------------------------------------------------|
--------------------------------------------------------------------------------------------------|


-10----09--12----10--02----12--03----02--10--07------------07--10----09--12----10--02----12--03---|
-------------------------------------------------12-----------------------------------------------|
-------------------------------------------------12-----------------------------------------------|
-------------------------------------------------12-----------------------------------------------|


-02--10--07----12------12--07--10----09--12----10--02----12--03----02--10--05-----------------------|
---------------10------10----------------------------------------------------------12---------------|
-----------------------------------------------------------------------------------11---------------|
-----------------------------------------------------------------------------------12---------------|


-----------------|
-----------------|
-----------------|
-----------------|


Login or Register to remove this ad.