Anxious Heart (Final Fantasy VII) Guitar Tab

Submitted: Aug 20, 2013 by Calebelijah

5
Average: 5 (2 votes)
Download | Listen
Game: Final Fantasy VII
Composer(s): Nobuo Uematsu
Style: 2 or more instruments, Transcription
Series: Final Fantasy

Click here for a video example.

AutoScroll: Slow | Medium | Fast
Title: Anxious Heart
Tempo = 69
Guitar 



Guitar 1 (Capo 1)
     W                   W                   H.           Q     
E||--3----------------|--4----------------|--3------------2----|
B||--0----------------|--2----------------|--0-----------------|
G||-------------------|-------------------|--------------------|
D||--2----------------|--L----------------|--2------------L----|
A||-------------------|-------------------|--------------------|
E||-------------------|-------------------|--------------------|


  W                   W                   W                 
--0----------------|--2----------------|--L----------------|
--2----------------|--0----------------|--L----------------|
-------------------|-------------------|-------------------|
--L----------------|--0----------------|--1----------------|
-------------------|-------------------|-------------------|
-------------------|-------------------|-------------------|


  H.           Q       H        H           W                 
--2------------3----|--2--------L--------|--L----------------|
--0------------L----|--0--------L--------|--L----------------|
--------------------|--------------------|-------------------|
--0------------L----|--2--------1--------|--L----------------|
--------------------|--------------------|-------------------|
--------------------|--------------------|-------------------|


  W                   W                   W                   W                 
-------------------|-------------------|-------------------|-------------------|
--0----------------|-------------------|--0----------------|-------------------|
--0----------------|--6----------------|--0----------------|--6----------------|
-------------------|--6----------------|-------------------|--6----------------|
--7----------------|--4----------------|--7----------------|--4----------------|
-------------------|-------------------|-------------------|-------------------|


  W                   W                   W                   W                 
--0----------------|--L----------------|--0----------------|--L----------------|
--0----------------|-------------------|--0----------------|-------------------|
--0----------------|--6----------------|--0----------------|--6----------------|
-------------------|--6----------------|-------------------|--6----------------|
--7----------------|--4----------------|--7----------------|--4----------------|
-------------------|-------------------|-------------------|-------------------|


  W                   W                   W                   W                 
-------------------|-------------------|-------------------|-------------------|
--3----------------|--4----------------|--3----------------|--4----------------|
--4----------------|--4----------------|--4----------------|--4----------------|
--5----------------|--4----------------|--5----------------|--4----------------|
--5----------------|--2----------------|--5----------------|--2----------------|
-------------------|-------------------|-------------------|-------------------|


  W                   H.           Q       W                 
-------------------|--------------------|-------------------|
--L----------------|--------------------|-------------------|
--L----------------|--4------------4----|--2----------------|
--L----------------|--2------------L----|--0----------------|
--L----------------|--------------------|-------------------|
-------------------|--------------------|-------------------|


  W                   H        H           H.           Q     
-------------------|--------------------|--------------------|
-------------------|-----------1--------|--------------------|
--4----------------|--0--------L--------|--4------------4----|
--2----------------|--------------------|--2------------L----|
-------------------|--3--------L--------|--------------------|
-------------------|--------------------|--------------------|


  W                   Q    Q    Q    Q       W                 
-------------------|----------------------|-------------------|
-------------------|-------3----2----5----|--3----------------|
--2----------------|----------------------|-------------------|
--0----------------|-------5----4----7----|--5----------------|
-------------------|----------------------|-------------------|
-------------------|----------------------|-------------------|


  Q    Q    Q    Q       W                  
----------------------|-------------------||
-------3----2----5----|--3----------------||
----------------------|-------------------||
-------5----4----7----|--5----------------||
----------------------|-------------------||
----------------------|-------------------||




Guitar 2 (Capo 1)

E |-------|-------|----------------|-------|-------|-------|----------------|
B |--5----|--2----|--5--------7----|--2----|--3----|--0----|--3--------5----|
G |-------|-------|----------------|-------|-------|-------|----------------|
D |-------|-------|----------------|-------|-------|-------|----------------|
A |-------|-------|----------------|-------|-------|-------|----------------|
E |-------|-------|----------------|-------|-------|-------|----------------|


-------|-------|----------------------------|--0-------------------------|
--0L---|--0----|--------------0-----3--2----|-----------2----------------|
-------|-------|--------0--2-----2----------|-----------------1----------|
-------|-------|-----2----------------------|-----------------------2----|
-------|-------|--2-------------------------|----------------------------|
-------|-------|----------------------------|----------------------------|


-----0--------------10-9----|--12-11-9-----0-------------|
--0--------10-12-10---------|-----------9-----4--2-------|
--------12------------------|-----------------------1----|
----------------------------|----------------------------|
----------------------------|----------------------------|
----------------------------|----------------------------|


--------------0--------7----|--9-----0-------------------|
-----------0-----7h-8-------|-----9-----4--2-------------|
--------0-------------------|-----------------1----------|
--2h-4----------------------|--------------------2--1----|
----------------------------|----------------------------|
----------------------------|----------------------------|


--------------0--------7----|--9-----0-------------------|
-----------0-----7h-8-------|-----9-----4--2-------------|
--------0-------------------|-----------------1----------|
--2h-4----------------------|--------------------2--1----|
----------------------------|----------------------------|
----------------------------|----------------------------|


----------------------------|----------------------------|
--------------------0--3----|--4--2--0-------------------|
--------------0--2----------|----------------------------|
-----------0----------------|-----------4--1-------------|
-----0--2-------------------|-----------------4--2-------|
--3-------------------------|-----------------------2----|


----------------------------|----------------------------|-------|
--------------------0--3----|--4--2--0-------------------|-------|
--------------0--2----------|----------------------------|-------|
-----------0----------------|-----------4--1L------------|--1----|
-----0--2-------------------|----------------------------|-------|
--3-------------------------|----------------------------|-------|


----------------------------|----------------------------|
--0-------------------------|-----------3L-3-------------|
-----------1----------------|--1-------------------------|
-----2--4-----------2--4----|-----4--0-------------------|
-----------------2----------|----------------------------|
----------------------------|----------------------------|


----------------------------|----------------------------|
--0-------------------------|----------------------------|
-----------1-----------1----|--2--0----------------------|
-----2--4--------2--4-------|--------2-------------------|
----------------------------|-----------3L-3-------------|
----------------------------|----------------------------|


----------------------------|----------------------------|
--0-------------------------|-----------3L-3-------------|
-----------1----------------|--1-------------------------|
-----2--4-----------2--4----|-----4--0-------------------|
-----------------2----------|----------------------------|
----------------------------|----------------------------|


-----------0L-0L----0L---------|-----0----|-----------0L-0L----0L---------|
--------0L-0L-0L----0L---------|-----0----|--------0L-0L-0L----0L---------|
-------------------------------|----------|-------------------------------|
--2L---------------------------|--2-------|--2L---------------------------|
--2L---------------------------|--2-------|--2L---------------------------|
--0L---------------------------|--0-------|--0L---------------------------|


-----0----||
-----0----||
----------||
--2-------||
--2-------||
--0-------||




Guitar 3 (Capo 1)

     W                   W                   W                 
E||-------------------|-------------------|-------------------|
B||-------------------|-------------------|-------------------|
G||-------------------|-------------------|-------------------|
D||-------------------|-------------------|-------------------|
A||-------------------|--4----------------|-------------------|
E||--0----------------|-------------------|--0----------------|


  W                   W                   W                   W                 
-------------------|-------------------|-------------------|-------------------|
-------------------|-------------------|-------------------|-------------------|
-------------------|-------------------|-------------------|-------------------|
-------------------|-------------------|-------------------|-------------------|
--4----------------|-------------------|--2----------------|-------------------|
-------------------|--3----------------|-------------------|--3----------------|


  W                   W                   Q.     E  E  E  E  E   
-------------------|-------------------|------------------------|
-------------------|-------------------|------------------0--2--|
-------------------|-------------------|------------0--2--------|
-------------------|-------------------|---------4--------------|
--2----------------|--L----------------|------------------------|
-------------------|-------------------|--0---------------------|


  Q.     E  H           Q.     E  Q    Q       Q.     E  H         
---------------------|-----------------7----|---------------------|
---------------------|---------7--8---------|--9------------------|
--1------------------|----------------------|---------------------|
---------------------|----------------------|---------------------|
---------------------|--7-------------------|---------------------|
---------------------|----------------------|---------------------|


   W                   W                    H.            Q     
--12----------------|--9----------------|--12------------14----|
--------------------|-------------------|----------------------|
--------------------|-------------------|----------------------|
--------------------|-------------------|----------------------|
--------------------|-------------------|----------------------|
--------------------|-------------------|----------------------|


  W                    W                   W                 
--9----------------|--10----------------|--7----------------|
-------------------|--------------------|-------------------|
-------------------|--------------------|-------------------|
-------------------|--------------------|-------------------|
-------------------|--------------------|-------------------|
-------------------|--------------------|-------------------|


   H.            Q       W                   W                 
--10------------12----|--7----------------|--L----------------|
----------------------|-------------------|-------------------|
----------------------|-------------------|-------------------|
----------------------|-------------------|-------------------|
----------------------|-------------------|-------------------|
----------------------|-------------------|-------------------|


  E  E  E  Q.     E  E     E  E  E   E   H           E  E  E  Q    E  E  E   
--7---------------------|-----------10---L--------|--7----------------------|
--------7--9---------7--|--9--7-------------------|--------7--9-------7--9--|
-----9------------9-----|--------7----------------|-----9----------9--------|
------------------------|-------------------------|-------------------------|
------------------------|-------------------------|-------------------------|
------------------------|-------------------------|-------------------------|


   E  E  H.              E  E  E  Q.     E  E     E  E  E   E   H         
----------------------|--7---------------------|-----------10---L--------|
--10--8---------------|--------7--9---------7--|--9--7-------------------|
---------9------------|-----9------------9-----|--------7----------------|
----------------------|------------------------|-------------------------|
----------------------|------------------------|-------------------------|
----------------------|------------------------|-------------------------|


  Q     Q    Q     Q        W                   Q     Q    Q     Q     
-------10----9----12----|--10----------------|-------10----9----12----|
--------8----7----10----|---8----------------|--------8----7----10----|
------------------------|--------------------|------------------------|
------------------------|--------------------|------------------------|
------------------------|--------------------|------------------------|
------------------------|--------------------|------------------------|


   W                  
--10----------------||
---8----------------||
--------------------||
--------------------||
--------------------||
--------------------||
Login or Register to remove this ad.

1 comment on Anxious Heart

fantastic! Now I just need 2

5

fantastic! Now I just need 2 others to play with...