Anxious Heart (Final Fantasy VII) Guitar Tab

Submitted: Jul 16, 2011 by Bhael (Last updated: Jul 16, 2011)

5
Average: 5 (11 votes)
Download | Listen
Game: Final Fantasy VII
Composer(s): Nobuo Uematsu
Style: Arrangement, Fingerstyle, Natural harmonics
Series: Final Fantasy

Click here for a video example.

AutoScroll: Slow | Medium | Fast
                                Anxious Heart         
                              Final Fantasy VII                          
                                Nobuo Uematsu
Capo 1
Tuning: EAC#DBD



      ^                   ^                   ^                  
      W                   W                   H.           Q     
D ||--2----------------|-------------------|--2------------4----|
B ||--0----------------|--2----------------|--0-----------------|
G ||--0----------------|--1----------------|--0-----------------|
C#||-------------------|--0----------------|--------------------|
A ||-------------------|-------------------|--------------------|
E ||--0----------------|-------------------|--0-----------------|


  ^                   ^                                     
  W                   W                   W                 
-------------------|-------------------|-------------------|
--2----------------|--3----------------|--0----------------|
--1----------------|--0----------------|-------------------|
--0----------------|--1----------------|--5----------------|
-------------------|-------------------|--2----------------|
-------------------|--3----------------|-------------------|


  ^                                                           
  H.           Q       H        H           W                 
---------------2----|--------------------|-------------------|
--3-----------------|--0-----------------|-------------------|
--0-----------------|--------------------|-------------------|
--1-----------------|--3--------2--------|--L----------------|
--------------------|--2-----------------|-------------------|
--3-----------------|--------------------|-------------------|


                             ^                      >  >  >  >  >  >  >  >   
  E  E  E  E  E  E  E  E     Q.     Q    Q    E     E  E  E  E  E  E  E  E   
--------------------0-----|--2-------------------|--------------------0-----|
--0-----------0--------2--|--2------2------------|--0-----------0--------2--|
--------0--------2--------|--1-----------1-------|--------0--------2--------|
-----------8--------------|--0----------------3--|-----------8--------------|
-----7--------------------|----------------------|-----7--------------------|
--0-----------------------|----------------------|--0-----------------------|


  ^  >  >  >  >  >  >  >                                  
                                                  |--3-|  
  E  E  E  E  E  E  E  E     E  E  E  E  E  E  E  S S  S  
--2--1--------------------|--2----------------------1p-0-|
--2-----2-----------------|-----------0------------------|
--1--------1--------------|--------0-----0---------------|
--0-----------3--2--------|-----3-----------3------------|
--------------------4-----|--------------------2---------|
-----------------------4--|--0--------------------0------|


                                                  |--3-|  
  E  E  E  E  E  E  E  E     E  E  E  E  E  E  E  S S  S  
--------------------------|--2-----------------4----2p-1-|
--2--------2--------------|------------------------------|
--------1-----1-----------|-----------0-----------0------|
-----3-----------3-----3--|--------3-----3---------------|
--4-----------------4-----|-----2-----------2------------|
--------------------------|--0---------------------------|


  E  E  E  E  E  E  E  E     E  E  E  E  E  E  E  E   
--------------------------|--0--------------------0--|
--2-----------------------|--------------------0-----|
--------1-----------1-----|--------------0--2--------|
-----3-----------3-----3--|-----------1--------------|
--4--------4--4-----------|-----0--2-----------------|
--------------------------|--3-----------------------|


                                                  |--3-|  
  E  E  E  E  E  E  E  E     E  E  E  E  E  E  E  S S  S  
--------------------------|--0-----------------2---------|
--0-----------------------|-------------------------3p-2-|
--------------------------|--------------0---------------|
-----------0--2--0--------|-----------1-----1------------|
--2-----2-----------2-----|-----0--2---------------------|
-----2-----------------2--|--3--------------------3------|


                                                                   NH           
  E  E  E  E  H             E  E  E  Q     E  E  E     E  E  E     E  H         
-----------------------||---9--------6--------------|--6--------<>12--L--------|
--0--------------------||---------7--------------7--|-----7--------------------|
-----------------------||*-----9--------------9-----|--------7-----------------|
-----------0--2--------||*----------------10--------|--------------------------|
--2-----2--------------||---------------------------|--5-----------------------|
-----2-----------------||---0-----------------------|--------------------------|


                                      T              
  E  E  E  Q    E  E  E     E  E  E   E  H           
--9--------6----------6--|--7----------------------||
--------7----------7-----|-----8-------------------||
-----9----------9--------|--------9------L--------*||
-------------------------|-----------11-----------*||
-------------------------|-------------------------||
--0----------------------|--8----------------------||


   |--3--|  |--3--|  |--3--|  |--3--|                         
   E  E  E  E  E  E  E  E  E  E  E  E     W                   
------------0-----------------2--------|--0-----------------||
---------------------2-----------------|--------------------||
*--------0--------0--------0--------0--|--0----------------*||
*-----3--------3--------3--------3-----|-------------------*||
---------------------------------------|--------------------||
---0-----------------------------------|--3-----------------||


  W                  
--L----------------||
-------------------||
--L----------------||
-------------------||
-------------------||
--L----------------||




Duration Legend
---------------
W - whole
H - half
Q - quarter
E - 8th
S - 16th
T - 32nd
X - 64th
. - note dotted
|-n-|  - n-tuplets


Tablature Legend
----------------
L - tied note
x - dead note
g - grace note
(n) - ghost note
> - accentuded note
NH - natural harmonic
AH - artificial harmonic
TH - tapped harmonic
SH - semi harmonic
PH - pitch harmonic
h - hammer on
p - pull off
b - bend
br - bendRelease
pb - preBend
pbr - preBendRelease
brb - bendReleaseBend
\n/ - tremolo bar dip
\n - tremolo bar dive
-/n - tremolo bar Release up
/n\ - tremolo bar inverted dip
/n - tremolo bar return
-\n - tremolo bar Release down
S - shift slide
s - legato slide
/ -  slide into from below or out of upwards
\ -  slide into from above or out of downwards
~ - vibrato
W - wide vibrato
tr - trill
TP - tremolo picking
T - tapping
S - slap
P - pop
< - fade in
^ - brush up
v - brush down
Login or Register to remove this ad.

2 comments on Anxious Heart

Good job

bravo! I like it xD good job ^.^

Wow. Surprised you didn't

5

Wow. Surprised you didn't get more comments. Very nice.

Edit: ah, I see the recording got lots of praise including from me, haha.