Ads

Airbuster (Final Fantasy VII) Guitar Tab

Submitted: Oct 14, 2020 by guitarsvd (Last updated: Oct 25, 2020)

5
Average: 5 (2 votes)
Download | No audio :(
Game: Final Fantasy VII
Composer(s): Nobuo Uematsu
Style: Arrangement, Fingerstyle
Series: Final Fantasy

Click here for a video example.

AutoScroll: Slow | Medium | Fast
Title: Those Who Fight Further
SubTitle: Final Fantasy VII Remake
Artist: Cecil Chau (GuitarSVD)
Music: Nobuo Uematsu
Tempo = 107.2
Nylon Guitar

Legend
L - tied note
x - dead note
h - hammer on/pull off
b - bend
s - slide
~ - vibrato
g - ghost note
> - accentuated note
t - trill
M - palm mute
. - staccato
P - popping (bass)
S - slapping (bass)
+ - tapping
W - wide vibrato
< - fade in
w - whammy bar
= - tremolo picking
v - brush up
^ - brush down
V - pick stroke up
n - pick stroke down


E |----------------------------------------|
B |----------------------------------------|
G |----------------------------------------|
D |-----------5-----------------7----------|
A |--0--0--0--3--------0--0--0--5----------|
E |----------------------------------------|


----------------------------------------|
----------------------------------------|
----------------------------------------|
----------------------------------------|
--0--0--0--6--5--3--5--3--2--3-----2----|
----------------------------------------|


----------------------------------------|
----------------------------------------|
----------------------------------------|
-----------5-----------------7----------|
--0--0--0--3--------0--0--0--5----------|
----------------------------------------|


----------------------------------------|
----------------------------------------|
----------------------------------------|
----------------------------------------|
--0--0--0--6--5--3--5--3--2--3-----2----|
----------------------------------------|


----------------------------------------|
----------------------------------------|
----------------------------------------|
----------------------------------------|
-----------6-----------------8----------|
--8--8--8--8--------8--8--8--8----------|


----------------------------------------|
----------------------------------------|
----------------------------------------|
----------------------------------------|
-----------9--8--6--8--6--5--6-----5----|
--8--8--8-------------------------------|


----------------------------------------|
----------------------------------------|
----------------------------------------|
----------------------------------------|
-----------6-----------------8----------|
--8--8--8--8--------8--8--8--8----------|


----------------------------------------|
----------------------------------------|
----------------------------------------|
----------------------------------------|
-----------9--8--6--8--6--5--6-----5----|
--8--8--8-------------------------------|


--0L---------------------------------------|
-------------------------------------------|
-------------------------------------------|
--------------5-----------------7----------|
-----0--0--0--3--------0--0--0--5----------|
-------------------------------------------|


--0--------2--2--2----------------------------------------|
-----------3--3--3----------------------------------------|
----------------------------------------------------------|
----------------------------------------------------------|
--------------------0--0--0--6--5--3--3-----3-----2-------|
----------------------------------------------------------|


--0----------------------------------------|
-------------------------------------------|
-------------------------------------------|
--------------5-----------------7----------|
-----0--0--0--3--------0--0--0--5----------|
-------------------------------------------|


-----------2--2--2----------------------------------------|
-----------3--3--3----------------------------------------|
----------------------------------------------------------|
----------------------------------------------------------|
--------------------0--0--0--6--5--3--3-----3-----2-------|
----------------------------------------------------------|


-------------------------------------------|
--8----------------------------------------|
--8----------------------------------------|
-------------------------------------------|
--------------6-----------------8----------|
-----8--8--8-----------8--8--8--8----------|


-----------5--5--5----------------------------------------|
----------------------------------------------------------|
----------------------------------------------------------|
----------------------------------------------------------|
-----------------------------9--8--6--8-----8-----8-------|
--------------------8--8--8-------------------------------|


-------------------------------------------|
--8----------------------------------------|
--8----------------------------------------|
-------------------------------------------|
--------------6-----------------8----------|
-----8--8--8--8--------8--8--8--8----------|


----------------------------------------|
----------------------------------------|
----------------------------------------|
----------------------------------------|
-----------9--8--6--8--6--5--6-----5----|
--8--8--8-------------------------------|


--5--------------5--4--------7h-4-------------------|
--------5-----5--------5-----------5----------------|
-----------2--------------4-------------------------|
----------------------------------------------------|
--------------------------------------0--0--0--0----|
----------------------------------------------------|


--8--------------8--7--------10-7-------------------|
--------8-----8--------8-----------8----------------|
-----------9--------------7-------------------------|
--------------------------------------------0--0----|
----------------------------------------------------|
--------------------------------------8--8----------|


--8--------------------------8-------------|
--------------------10----10----10---------|
-----------------10----10----------10------|
--------------10----------------------10---|
-----8-------------------------------------|
-------------------------------------------|


-----------------------------------0----------|
--1--0-----------3--------------0-----0-------|
--------------2-----2--------1-----------1----|
--------0h-3-----------3--2-------------------|
----------------------------------------------|
----------------------------------------------|


-----------5h-0-----4h-0-----3-------------|
--1-----------------------------4----------|
-----------------5--------4--------2-------|
-------------------------------------------|
--------------------------------------0----|
-------------------------------------------|


--0-------------------------------------------|
-----1-----1-----------------------0----------|
--------2-----2-----2-----------1-------------|
-----------------3-----3h-0--2----------------|
--------------------------------------0-------|
-----------------------------------------0----|


-------------------------------------------|
-----------------------------0-------------|
--2--------------2--1-----------1----------|
--------2-----2--------2-----------2-------|
-----------0--------------2-----------3----|
-------------------------------------------|


-----------------------1-------------------|
--1-----------------1-----1-----1----------|
-----------------2-----------2-----2-------|
--------------3-----------------------3----|
-----------3-------------------------------|
-----1-------------------------------------|


-----------------------------------0----------|
--1--0-----------3--------------0-----0-------|
--------------2-----2--------1----------------|
--------0h-3-----------3--2--------------2----|
----------------------------------------------|
----------------------------------------------|


-----------5h-0--------0----------------------------------------------------|
--1--------------1--------1--------1----------------------------------------|
--------------------2--------2--------2-------------------------------------|
--------------------------------2-------------------------------------------|
-----------------------------------------0L-0L----------0L------------------|
----------------------------------------------------------------------------|


-------------------------------------------|
-------------------------------------------|
--2--------2-------------------------------|
-----2--------2-----0h-2-------------------|
--------3--------3--------3--0--------0----|
-------------------------------------------|


--------------------------0--2h-0----------|
-----0h-1--3h-1--0--1h-3-----------3-------|
--2--------2--------2----------------------|
--2-----------------2----------------------|
--------------------------------------0----|
-------------------------------------------|


--0-------------------------------------------------|
--0--3h-1--3--1h-0--1h-0--------0--3----------------|
--------------------------2--1----------------------|
-----------------------------------------3--1--2----|
----------------------------------------------------|
----------------------------------------------------|


--------------------------0--2h-0----------|
-----0h-1--3h-1--0--1h-3-----------3-------|
--2--------2--------2----------------------|
--2-----------------2----------------------|
--------------------------------------0----|
-------------------------------------------|


--0-------------------------------------------------|
-----1--------0--3--1-------------------------------|
--------2--1-----------2--1--2----------------------|
-----------------------------------------2----------|
--------------------------------------0-----3--0----|
----------------------------------------------------|


-------------------------------------------|
-------------------------------------------|
--2----------------------------------------|
--------------0-----------0h-2--4h-2--0----|
-----0h-2--3-----3h-2--3-------------------|
-------------------------------------------|


----------------------------------------------|
--0--1----------------------------------------|
----------------------------------------------|
--------2h-0-----0-----------------------0----|
--------------3-----3h-2--3h-2--0-----2-------|
-----------------------------------4----------|


-------------------------------------------|
-------------------------------------------|
--2----------------------------------------|
--------------0-----------0h-2--4h-2--0----|
-----0h-2--3-----3h-2--3-------------------|
-------------------------------------------|


----------------------------------------------|
--3-------------------------------------------|
-----2----------------------------------------|
--------2--------------0----------------------|
-----------3h-0-----2-----3h-0-----0----------|
-----------------4--------------4-------------|


----------------------------------------------------|
--0-----1--3----------------------------------------|
--0-----0--0----------------------------------------|
----------------------------------------------------|
--------------------------------0--------2----------|
--------------3--------3--3--3----------------------|


--0----------------------------------------|
--1-----------------1----------------------|
-----------0-----0-----0-----0-------------|
--------2-----2-----------2-----2----------|
-----3-----------------------------3-------|
-------------------------------------------|


----------------------------------------------------|
--0--0--1--3----------------------------------------|
--0--0----------------------------------------------|
----------------------------------------------------|
--------------------------------0--------2----------|
--------------3--------3--3--3----------------------|


--0----------------------------------------|
--1-----------------1----------------------|
-----------0-----0-----0-----0-------------|
--------2-----2-----------2-----2----------|
-----3-------------------------------------|
-------------------------------------------|


----------------------------------------------------|
--------0--2----------------------------------------|
--2-----0--2----------------------------------------|
--2-------------------------------------------------|
--------------0--------0--0--0--2--------4----------|
----------------------------------------------------|


-------------------------------------------|
--3-----------------------------3----------|
--2--------------------2-----2-------------|
-----0-----0--3--0--3-----3----------------|
--------0----------------------------------|
-------------------------------------------|


-----------0----------------------------------------|--1--0----------|
--2--2--3-------------------------------------------|--3--2----------|
--2--2----------------------------------------------|-----2----------|
----------------------------------------------------|--------0-------|
--------------0--------0--0--0--2--------4----------|----------------|
----------------------------------------------------|----------------|


-----------5-----------------3--5--6----------------|
--3-----3-------------------------------------------|
----------------------------------------------------|
--------------------------------------0-----0--0----|
----------------------------------------------------|
----------------------------------------------------|


--5--------1--------3--------1--0-------------------|
-----------------------------------3----------------|
----------------------------------------------------|
--------------------------------------0--0--0--0----|
----------------------------------------------------|
----------------------------------------------------|


--0--------------------------------0----------------|
--------1--3-----------------1--3-------------------|
----------------------------------------------------|
--------------------------------------0--0--0--0----|
----------------------------------------------------|
----------------------------------------------------|


----------------------------------------------------|
--3L----------------3-------------------------------|
--------------------------------------2--2----------|
--------------------------------------------0-------|
-----------------------------2h-0-------------------|
-----------------------------------3----------------|


-----------0--------------------0--1----------------|
-----------------------------3----------------------|
--------2-------------------------------------------|
----------------------------------------------------|
--0-----------------------------------0--0--0--0----|
----------------------------------------------------|


--0-------------------------------------------------|
-----------1--------3--------1--0-------------------|
-----------------------------------2----------------|
----------------------------------------------------|
--------------------------------------0--0--0--0----|
----------------------------------------------------|


----------------------------------------------------|-------------------|
--0--------------------------------0----------------|-------------------|
--------0--2-----------------0--2-------------------|--2----------------|
----------------------------------------------------|-------------------|
--------------------------------------0--0--0--0----|-----0--2--3--4----|
----------------------------------------------------|-------------------|


-----------5-----------------3--5--6----------------|
--3-----3-------------------------------------------|
--2-------------------------------------------------|
--------------------------------------0-----0--0----|
----------------------------------------------------|
----------------------------------------------------|


--5--------1--------3--------1--0-------------------|
--3-----------------3--------------3----------------|
----------------------------------------------------|
--------------------------------------0--0--0--0----|
----------------------------------------------------|
----------------------------------------------------|


--0--------------------------------0----------------|
--------1--3-----------------1--3-------------------|
----------------------------------------------------|
--------------------------------------0--0--0--0----|
----------------------------------------------------|
----------------------------------------------------|


----------------------------------------------------|
--3L----------------3-------------------------------|
--------------------------------------2--2----------|
--------------------------------------------0-------|
-----------------------------2--0-------------------|
-----------------------------------3----------------|


-----------0--------------------0--1----------------|
-----------1-----------------3----------------------|
--------2-------------------------------------------|
----------------------------------------------------|
--0-----------------------------------0--0--0--0----|
----------------------------------------------------|


--0-------------------------------------------------|
--1--------1--------3--------1--0-------------------|
--2--------2--------2--------------2----------------|
----------------------------------------------------|
--------------------------------------0--0--0--0----|
----------------------------------------------------|


----------------------------------------------------|
--0--------------------------0----------------------|
--------0--2--------------------2--0----------------|
----------------------------------------------------|
--------------------------------------0--0--0--0----|
----------------------------------------------------|


--0--------------0--2--------------2----------|
--1-----------1-----3-----------3-------------|
-----0-----0-----------2-----2----------------|
--------2-----------------4-------------------|
--------------------------------------3--5----|
----------------------------------------------|


--3-----------------4-------------------------|
--3--0-----------0-----0-----------0----------|
--------0-----0-----------1-----0-------------|
-----------0-----------------2----------------|
--------------------------------------2-------|
-----------------------------------------0----|


--5--------------------------------0----------|--5-------------------------||
-----------1-----------------4----------------|--5-------------------------||
-----2--2-----------2--2--2-------------------|--5-------------------------||
-----------------1----------------------------|----------------------------||
----------------------------------------------|--------------0-------------||
--------------------------------------1--1----|----------------------------||

Login or Register to remove this ad.