Ads

Ahead On Our Way (Final Fantasy VII) Guitar Tab

Submitted: Apr 15, 2020 by crake0 (Last updated: Apr 26, 2020)

5
Average: 5 (3 votes)
Download | Listen
Game: Final Fantasy VII
Composer(s): Nobuo Uematsu
Style: Artificial harmonics, Fingerstyle
Series: Final Fantasy

AutoScroll: Slow | Medium | Fast
Title: Ahead On Our Way (Final Fantasy VII)
Artist: Nobuo Uematsu
Version: Ghib Ojisan (https://www.youtube.com/watch?v=tIAjesYLP1s)

[0:00 - 0:35]

E|-5---3---2---3-/-5------------|-2---0---0-----------------------|-----7---5-------5-----------7--9--|
B|-3------------------------3---|-0---------------0---------------|-5-----------8---7-------7---------|
G|-4--------------------4-------|-0-------------------0-------0---|-5---------------5---5-------------|
D|-4--------------------4-------|-2-----------2-----------2-------|-5---------------7-----------------|
A|------------------------------|---------------------------------|-7---------------5-----------------|
E|-3----------------------------|-0-------------------------------|-5---------------------------------|


E|-10--7---7-----------------------|-7-7h8---7---5---3-----------5---|/7---------------2---0-----------|
B|-7---------------7---------------|-8---------------4-------4-------|-----0---1---3---0-------0-------|
G|-7-------------------7-------7---|-9---------------3---3-----------|-0---------------0-----------0---|
D|-9-----------9-----------9-------|-10--------------5---------------|---------------------------------|
A|---------------------------------|-----------------3---------------|---------------------------------|
E|-7-------------------------------|-8-------------------------------|-----------------0---------------|


E|-----------------5---------------|-----3---5---7---8------------|
B|-----5---7---8-------7-----------|-----4-----------7----0-------|
G|-----5-------------------5-------|-----5-----------5--------0---|
D|-----5-----------7-----------7---|-----0-----------7------------|
A|---------------------------------|-0---------------5------------|
E|-5-------------------------------|------------------------------|


[0:35 - 1:02]

E|-5---3---2---3-/-5------------|-2---0---0-----------------------|-----7---5-------5-----------7--9--|
B|-3------------------------3---|-0---------------0---------------|-5-----------8---7-------7---------|
G|-4--------------------4-------|-0-------------------0-------0---|-5---------------5---5-------------|
D|-4--------------------4-------|-2-----------2-----------2-------|-5---------------7-----------------|
A|------------------------------|---------------------------------|-7---------------5-----------------|
E|-3----------------------------|-0-------------------------------|-5---------------------------------|


E|-10--7---7-----------------------|-7-7h8---7---5---3-----------5---|/7---------------2---0-----------|
B|-7---------------7---------------|-8---------------4-------4-------|-----0---1---3---0-------0-------|
G|-7-------------------7-------7---|-9---------------3---3-----------|-0---------------0-----------0---|
D|-9-----------9-----------9-------|-10--------------5---------------|---------------------------------|
A|---------------------------------|-----------------3---------------|---------------------------------|
E|-7-------------------------------|-8-------------------------------|-----------------0---------------|


E|-----7---5-------5--------2---|------3-----------------|---------------------------------|
B|-5-----------8---7----7-------|------3-----------------|---------------------------------|
G|-5---------------5------------|------4-----4-----------|-----------------4---------------|
D|-5---------------7------------|------5---------5-------|---------5-----------5-------5---|
A|-7---------------5------------|--------------------5---|-----5-------5-----------5-------|
E|-5----------------------------|-3----------------------|-3-------------------------------|


[1:02 - 1:39]

E|---------------------------------|----------------------0-------|-----------------0---------------|
B|-----------------3-------0-------|------------------0-------0---|---------0---1-------1-----------|
G|-----0---2---4-------0-------0---|------------------------------|-1---2-----------------------2---|
D|-4-------------------------------|/4-------2--------------------|-------------------------2-------|
A|-----------------2---------------|-----2------------------------|-0---------------3---------------|
E|-3-------------------------------|-0----------------------------|---------------------------------|


E|-------------------------5-------|-----------------2-----------2---|/5---3---5---7---0-----|
B|---------3-----------------------|---------2---3---3---3-/-5-------|-----------------------|
G|-----5-------5-------5-------5---|-3---4-----------4---------------|-----------------------|
D|/5---------------4---------------|-----------------4---------------|-----------------------|
A|/5---------------5---------------|-2-------------------------------|-----------------------|
E|---------------------------------|---------------------------------|-5---------------------|


E|-0---------------------|---------------------------------|-3-------------------------------|
B|-1---0---1-------------|-------------0---1-------3---1---|-3-------------------------------|
G|-2-----------1---2-----|-----1---2-------2---------------|-4-----------------------4-------|
D|-2---------------------|-0---------------0---0-----------|-5---5-------5---------------5---|
A|-0---------------------|---------------------------------|-5-------5-----------5-----------|
E|-----------------------|---------------------------------|-3---------------3---------------|


E|-------------------------0-------|-0-------------------------------|-----------------|
B|---------------------0-------0---|-1-------1-----------1-----------|-----------------|
G|-------------0---4---------------|-2-----------2-------2---2---0---|-----------------|
D|/4---2---4-----------------------|-2-------------------2-----------|-4-----5-/-7-----|
A|---------------------------------|-0---------------0---------------|-5---------------|
E|-0-------------------------------|---------------------------------|-----------------|


[1:39 - 2:06]

E|-5---3---2---3-/-5------------|-2---0---0-----------------------|-----7---5-------5-----------7--9--|
B|-3------------------------3---|-0---------------0---------------|-5-----------8---7-------7---------|
G|-4--------------------4-------|-0-------------------0-------0---|-5---------------5---5-------------|
D|-4--------------------4-------|-2-----------2-----------2-------|-5---------------7-----------------|
A|------------------------------|---------------------------------|-7---------------5-----------------|
E|-3----------------------------|-0-------------------------------|-5---------------------------------|


E|-10--7---7-----------------------|-7-7h8---7---5---3-----------5---|/7---------------2---0-----------|
B|-7---------------7---------------|-8---------------4-------4-------|-----0---1---3---0-------0-------|
G|-7-------------------7-------7---|-9---------------3---3-----------|-0---------------0-----------0---|
D|-9-----------9-----------9-------|-10--------------5---------------|---------------------------------|
A|---------------------------------|-----------------3---------------|---------------------------------|
E|-7-------------------------------|-8-------------------------------|-----------------0---------------|


E|-----7---5-------5--------2---|------3-----------------|---------------------------------|
B|-5-----------8---7----7-------|------3-----------------|---------------------------------|
G|-5---------------5------------|------4-----4-----------|-----------------4---------------|
D|-5---------------7------------|------5---------5-------|---------5-----------5-------5---|
A|-7---------------5------------|--------------------5---|-----5-------5-----------5-------|
E|-5----------------------------|-3----------------------|-3-------------------------------|


[2:06 - End]

E|---------------------------------|----------------------0-------|-----------------0---------------|
B|-----------------3-------0-------|------------------0-------0---|---------0---1-------1-----------|
G|-----0---2---4-------0-------0---|------------------------------|-1---2-----------------------2---|
D|-4-------------------------------|/4-------2--------------------|-------------------------2-------|
A|-----------------2---------------|-----2------------------------|-0---------------3---------------|
E|-3-------------------------------|-0----------------------------|---------------------------------|


E|-------------------------5-------|-----------------2-----------2---|/5---3---5--/7---0-----|
B|---------3-----------------------|---------2---3---3---3-/-5-------|-----------------------|
G|-----5-------5-------5-------5---|-3---4-----------4---------------|-----------------------|
D|/5---------------4---------------|-----------------4---------------|-----------------------|
A|/5---------------5---------------|-2-------------------------------|-----------------------|
E|---------------------------------|---------------------------------|-5---------------------|


E|-0---------------------|---------------------------------|-3-------------------------------|
B|-1---0---1-------------|-------------0---1-------3---1---|-3-------------------------------|
G|-2-----------1---2-----|-----1---2-------2---------------|-4-----------------------4-------|
D|-2---------------------|-0---------------0---0-----------|-5---5-------5---------------5---|
A|-0---------------------|---------------------------------|-5-------5-----------5-----------|
E|-----------------------|---------------------------------|-3---------------3---------------|


E|-------------------------0-------|-0-------------------------------|-----------------|
B|---------------------0-------0---|-1-------1-----------1-----------|-----------------|
G|-------------0-------------------|-2-----------2-------2---2---0---|-----------------|
D|/4---2---4-------2---------------|-2-------------------2-----------|-4-----5-/-7-----|
A|---------------------------------|-0---------------0---------------|-5---------------|
E|-0-------------------------------|---------------------------------|-----------------|

                         AH
E|---------------------|--------|
B|----------------0----|-7------|
G|-0---------2---------|--------|
D|-0----0--------------|--------|
A|-2-------------------|--------|
E|-3-------------------|--------|



Login or Register to remove this ad.

1 comment on Ahead On Our Way

Very awesome, I way fun to

5

Very awesome, way fun to play