Ads

Ahead on Our Way (Final Fantasy VII) Guitar Tab

Submitted: Mar 21, 2020 by guitarsvd (Last updated: Mar 26, 2020)

5
Average: 5 (1 vote)
Download | No audio :(
Game: Final Fantasy VII
Composer(s): Nobuo Uematsu
Style: Arrangement, Artificial harmonics, Fingerstyle, Natural harmonics
Series: Final Fantasy

Click here for a video example.

AutoScroll: Slow | Medium | Fast
Title: Ahead On Our Way
SubTitle: Final Fantasy VII
Artist: Cecil Chau (GuitarSVD)
Music: Nobuo Uematsu
Tempo = 70
Guitarra

Legend
L - tied note
x - dead note
h - hammer on/pull off
b - bend
s - slide
~ - vibrato
g - ghost note
> - accentuated note
t - trill
M - palm mute
. - staccato
P - popping (bass)
S - slapping (bass)
+ - tapping
W - wide vibrato
< - fade in
w - whammy bar
= - tremolo picking
v - brush up
^ - brush down
V - pick stroke up
n - pick stroke down

                                                        
E |--5--3--2--3--5-------------------------------------|
B |--------------0-----0--3--0-------------------------|
G |--------------------------------------------0-------|
D |--------------------------4--------------------4----|
A |----------------------------------------------------|
E |--------------------------3-------------------------|

                                                     
--2--0--0-------------------------------------------|
--------0-------------------------------------------|
--------------------------0-------------------------|
--------------------------2-------------------------|
--------------------------------------------2--1----|
----------------------------------------------------|

                                                           
--------7-----5-----------5-----------------7--9----------|
--5-----------5-----8-----7-------------------------------|
--------------------------------------------------5--7----|
-----------------------------------------------------0----|
--------------------------------------------------0-------|
----------------------------------------------------------|

                                         
--10-7--7-------------------------------|
--7--------------------------------6----|
-----7--7--------------------------5----|
-----------------------------------6----|
-----------------------------------5----|
--------------------------7-------------|

                                   ^
--7--8--7-----3--------5----------------|
--8-----8--10-------------------0-------|
--------------------------0--------2----|
--------------------------------1-------|
----------------------------------------|
--------------------------8-------------|


--7-----------2--0L-0-------------------------------|
--0--0--1--3--------------------------------3-------|
-----------------------------------0----------------|
-----------------------------0--2-----------2-------|
-----------------------------------------2----------|
--------------------------3-----------0-------------|


-----0--2--3--5-------------------------------------------------------------|
--------------------------------------------0-----2-------------------------|
--------------------------------------0-----------0-------------------------|
--------------------------------2-----------------------------------2--1----|
--------------------------0-------------------------------------------------|
----------------------------------------------------------------------------|


-----3--5--7--8----------------|
-----1--3-----9----------------|
--------------7----------------|
--------------------------0----|
-------------------------------|
-------------------------------|


-----------11-------8-----------------------------------------------2h-3--------
-----------9-----------------9--------------------------------3h-4--------------
--------------------------------------11-------8--------2h-5--------------------
--------------------------------------------------------------------------0-----
--------------------------------------------------------------------------------
--------------------------------------------------------------------------------


--------|--5--3--2--3--5-------------------------------------|
--------|--3--3--3--3--3-----0--3----------------------------|
--------|--2-------------------------------------------------|
---0----|-----------------------------2--0--2--4-----1-------|
--------|--------------------------2-------------------------|
--------|--------------------------------------------1-------|


--2--0--0-----------------------------------------------------------------------
-----------------------------------------------------------------------0--------
--------------------------------------------------------------0-----------------
--------------------------------------------2--------4--------------------------
-----------------------------------2--------------------------------------------
--------------------------0-----------------------------------------------------


0-------------------|
------4-----3-------|
--------------------|
--------------------|
--------------------|
--------------------|


--0-----7-----5-----3-----5-----------------7--9----------------------------|
--1-----5-----5-----5-----5-------------------------------------------------|
--------------------------------------------------2--0----------------------|
--------------------------------------------------------4--2--0-------------|
--------------------------------------------------------------------0-------|
----------------------------------------------------------------------------|


--10-7--7-------------------------------------------|
-----------------------------------7----------------|
--------------9-----10----------7-------------------|
-----------------------------9--------9-----6-------|
----------------------------------------------------|
--------------------------7-------------------------|


--7--8--7-----3--------5----------------------------|
--5-----0--10-0-----------------------------3-------|
--------------------------0--------------0-----5----|
-----------------------------------0----------------|
--------------------------------------6-------------|
--------------------------------8-------------------|


--7-----------2--0L-0-------------------------------|
-----0--1--3--------------------------------3-------|
--------------------------------------------1-------|
--------------------------0-----2--4--2-----0-------|
----------------------------------------------------|
-----------------------------3----------------------|


--0--7--5-----5--------2L---------------|
--2--------8--4-------------------------|
--------0-----4-----------0-------------|
-----------------------------------0----|
--------------------------0-----3-------|
----------------------------------------|


--2--3--3-------------------------------------------|
-----------------------0--------------0--3----------|
--------------------0-----------0--2----------------|
-----------------------------0----------------------|
----------------------------------------------------|
--------------------------3-------------------------|


--------------------------------------------------0-----------------------5-----
--------------------------1-----------------------------------------------------
--2-----------------------------------------------------------------------------
--------------------------------------------------------------------------------
--------------------------------------------------------------------------------
--------------------------------------------------------------------------------


------------4h-3----------------------------|--2--------------------3--7----|
--------------------------------------------|--0--------------0--3----------|
---------------------------0--2-------------|-----------0--2----------------|
------------------------3-------------------|--------0----------------------|
---------------------3----------------------|-------------------------------|
------------------1-------------------------|-----3-------------------------|


--------0--5----------------------------|
-----1-----------------------1L-1-------|
--2--------------------0--2-------------|
--------------------3-------------------|
-----------------3----------------------|
--------------1-------------------------|


-----------------7--5--3----------------------------|
--0-----------1-----3--------------0----------------|
--------------------------------2--------0L-0-------|
--2--------------------------2----------------------|
--------------------------------------0-------------|
--------------------------2-------------------------|


--2--0----------------------------------|
--3--1--3--1----------------------------|
--------2--0-----3----------------------|
--------------------2-----1-------------|
--------------3-----------0-------------|
----------------------------------------|


-----0--2--4--7-----4-------------------|
--4--------------------5--------4--0----|
--------------------------1-----4-------|
--------------------------4-------------|
--------------------------------7--6----|
----------------------------------------|


--------------------------------4-------|
--4--------------------4--5--------5----|
-----6--------------6--------6----------|
-----------------6----------------------|
--------------4-------------------------|
----------------------------------------|


--1--2--4--5--9--------2----------------|----------------------------------|
-----------------10-2-----2--2----------|--5--4----------------------------|
--------------------------1--2-----1----|--------------2--4L-4--2----------|
-----------------------------4--7--2----|-----------4--------------4-------|
--------------------------2-----7--0----|--------2--------------------2----|
----------------------------------------|----------------------------------|


--3--4--6--7--11----9--11---------------|
-----------------12----0--0--0--0-------|
--------------------0-----3-------------|
--------------------------1--6----------|
-----------------------------6----------|
--------------------------------11-11---|


--14-12-14-16-9-------------------------------------|
--------------------------------9--0--------9-------|
-----------------------------9-----------9-----9----|
----------------------------------------------------|
----------------------------------------------------|
--------------------------9-----------7-------------|


--9--4--5--1--2-------------------------------------|
--------------------------------6-----3-------------|
-----------------------------6-----1--------2-------|
--------------------------------------2-------------|
--------------------------0-----------3-------------|
----------------------------------------------------|


-----1--2--4--5-----------------------------------------------------------------
--------------2-----------------------------4-----------------------------------
-----------------------------------2--------------------------------------------
--------------------------------------------------------------4-----------------
--------------------------2-----------------------------------------------------
--------------------------------------------------------------------------------


--------------------|
--------------------|
2-----------1-------|
------3-------------|
--------------------|
--------------------|


--9--------------------9----------------------------------------|
-----9--10-6--7-------------------------------------------------|
--------------------------------7--7-----------------6----------|
--------------------------------------------------6-----6L-6----|
-----------------------------8-----------------9----------------|
--------------------------7-----------------6-------------------|


--10----7-----3--------10---------------------------------------|
-----10----7-----------------------------------------0----------|
-----------------------------------7--------------0-----0-------|
--------------------------------7--------------0-----------0----|
-----------------------------9--------------2-------------------|
--------------------------8-------------------------------------|


--12-7--8-------------------------------------------------------|
-----------9--10-------9L-------9-------------------------------|
-----------------------------9-----9-----------------9----------|
--------------------------------------------------7-----7-------|
-----------------------------------------------7-----------7----|
--------------------------7-----------------9-------------------|


--------------------------------------------------------------------------------
--9--------------------------6--------------------------7-----------------------
--------------------------------------------------------------------------------
--------------------------------------------------------------------------------
--------------------------------------------------------------------------------
--7-----------------------------------------------------------------------------


------------------------------5-----------4-----------2-------------------------
---9--------------------------------------------------------------5-----------4-
--------------------------------------------------------------------------------
--------------------------------------------------------------------------------
--------------------------------------------------------------------------------
--------------------------------------------------------------------------------


--------------------------------------------------------------------------------
----------2---------------------------------------------------------------------
----------------------4-----------2---------------------------------------------
----------------------------------------------6-----------------6--7------------
-------------------------------------------------------------7--------------2---
--------------------------------------------------------------------------------


----------------|
----------------|
----------------|
----------------|
----------------|
----------------|


-----------4--------6--------7--------9-----------------------------9-----------
--------------------------------------9-----------------------9-----9-----------
--------------------------------------------------------10----10----------------
-----------------------------------------------11-------11----------------------
-----------------------------------------------11-------------------------------
--------------------------------------------------------------------------4-----


--------------------------------------------------------------------|
--------------------------------------------------------------------|
------------4-------------------------------------------------------|
------6-----------6-------------------------------------------------|
6-----------------------6-------------------------------------------|
------------------------------9-------------------------------------|


--2--3--5--7--10----7--3----------------------------------------|
-----------------------------------0-----------------0----------|
--------------------------------0-----0-----------0-----0-------|
-----------------------------0-----------0-----0-----------0----|
----------------------------------------------------------------|
--------------------------3-----------------7-------------------|


--2--0----------------------------------------------|
-----------------------0-----------------0----------|
--------------------0-----0-----------0-----0-------|
-----------------2-----------2-----2-----------2----|
--------------------------------2-------------------|
--------------0-------------------------------------|


--4--5--7--8--12-8--0--5----------------------------------------|
-----------------------5--------5-----5-----------10-1----------|
-----------------------------5-----5-----5-----9-----2--2--5----|
----------------------------------------------------------------|
--------------------------0-----------------0-------------------|
----------------------------------------------------------------|


--3--2-----------3-----------------0----------|
--------------3-----3-----------3-----3-------|
-----------2-----------2-----2-----------2----|
--------0-----------------0-------------------|
----------------------------------------------|
----------------------------------------------|


-----7--9--10-14-10-12-14---------------------------------------|
--11----------------------------------7-----------0-----0-------|
-----------------------------------7-----7-----11----11----11---|
--------------------------------9-------------------------------|
-----------------------------9----------------------------------|
--------------------------7-----------------10------------------|


--17-15-17-19-12------------------------------------------------|
--------------------------------0-----0-------------------------|
-----------------------------0-----0-----0-----------0----------|
--------------------------------------------------2-----2-------|
-----------------------------------------------2-----------2----|
--------------------------0-----------------0-------------------|


--12-7--8-----5-------------------------------------------------|
-----------9--------------------10-------------------4----------|
-----------------------------9-----9L-9--9--------5-----5-------|
-----------------------------------------------7-----------7----|
--------------------------0-----------------0-------------------|
----------------------------------------------------------------|


-----------------0--7--4----------------|
-----------0--1--------------------3----|
-----1--2-----------------------2-------|
--------------------------0-------------|
----------------------------------------|
----------------------------------------|


--5--------------------1----------------|
-----1--3--4--3-------------------------|
-----------------0--1--------2----------|
--------------------------0-----0-------|
----------------------------------------|
----------------------------------------|


-----8--4--5--13-11-10------------------------------|
--3-----------------------------------------7-------|
-----------------------------------------7----------|
--------------------------------------0--------0----|
----------------------------------------------------|
----------------------------------------------------|


-------------------------------|
--3-----------------12---------|
-----------------------12-4----|
--------------------------4----|
-------------------------------|
-------------------------------|


--2--0--2--3--0-------------------------------------------------------------|
--0-----------0-------------------------------------------------------------|
----------------------------------------------------------------------------|
--------------------------2L----------------------------------2-----9--8----|
----------------------------------------------------------------------------|
----------------------------------------------------------------------------|


--12----------12-8--5----------|--------------5-------------------------|
-----------------------8-------|--7--------8-----------------------3L---|
--12----------12----5----------|----------------------------------------|
-------------------------------|--------------------------0--------0L---|
--------------------------12---|----------------------------------------|
-------------------------------|----------------------------------------|


-----------11-------8-----------------------------------------------2--3--------
-----------9-----------------9--------------------------------3--4--------3-----
-----------8--------------------------11-------8--------2--5--------------------
--------------------------------------------------------------------------0--10L
--------------------------------------------------------------------------------
--------------------------------------------------------------------------------


--------------------|--5--3--2--3--5-------------------------------------|
--------------------|--3--3--3--3--3-----0--3----------------------------|
--------------------|--2-------------------------------------------------|
---------10-0-------|-----------------------------2--0--2--4-----1-------|
--------------------|--------------------------2-------------------------|
--------------------|--------------------------------------------1-------|


--2--0--0-----------------------------------------------------------------------
-----------------------------------------------------------------------0--------
--------------------------------------------------------------0-----------------
--------------------------------------------2--------4--------------------------
-----------------------------------2--------------------------------------------
--------------------------0-----------------------------------------------------


0-------------------|
------4-----3-------|
--------------------|
--------------------|
--------------------|
--------------------|


--0-----7-----5-----3-----5-----------------7--9----------------------------|
--1-----5-----5-----5-----5-------------------------------------------------|
--------------------------------------------------2--0----------------------|
--------------------------------------------------------4--2--0-------------|
--------------------------------------------------------------------0-------|
----------------------------------------------------------------------------|


--10-7--7-------------------------------------------|
--------------8-----------------------------11-12---|
--------------------------------------7--10---------|
--------------------------------9--11---------------|
-----------------------------8----------------------|
--------------------------7-------------------------|


--7--8--7-----3--------5----------------------------|
--5-----0--10-0-----------------------------3-------|
--------------------------0--------------0-----5----|
-----------------------------------0----------------|
--------------------------------------6-------------|
--------------------------------8-------------------|


--7-----------2--0----------------------------------------------------------|
-----0--1--3--3--1----------------------------------------------------------|
--7--1--0--------0----------------------------------------------------------|
-----------4--2--0----------------------------------------------------------|
----------------------------------------------------------------------------|
--------------------------------------------------------------------3--4----|


--0--7--5--3--5--------2L---------------------------|
--1--------5--3-----------------------7-------------|
--0--------6--------------------0-----5-------------|
--------------------------------------------0-------|
--------------------------0-------------------------|
----------------------------------------------------|


--2--3--3-------------------------------------------|
--------------------------------------0-------------|
--------------------------------0--2----------------|
-----------------------------0----------------------|
----------------------------------------------------|
--------------------------3-------------------------|


--------------------------------------------------0-----------------------5-----
--------------------------1-----------------------------------------------------
--2-----------------------------------------------------------------------------
--------------------------------------------------------------------------------
--------------------------------------------------------------------------------
--------------------------------------------------------------------------------


------------4h-3----------------------------|
--------------------------------------------|
---------------------------0--2-------------|
------------------------3-------------------|
---------------------3----------------------|
------------------1-------------------------|


--2L----------------------------------------------------------------------2-----
--0L----------------------------------------------------------------------0-----
--------------------------------------------------------------------------------
--------------------------------------------------------------------------------
--------------------------------------------------------------------------------
--------------------------------------------------------------------------------


--------------------------------------------|
------------0-----------------0-------------|
---------------3--------0--2----------------|
---------------------0----------------------|
--------------------------------------------|
------------------3-------------------------|


--------3--7----------------------------|
-----1-----------------------1L-1-------|
--2--------------------0--2-------------|
--------------------3-------------------|
-----------------3----------------------|
--------------1-------------------------|


--5--3--2--3--2--0-----0----------------------------|
--------------1-----4-------------------------------|
--4-----4-----------0-------------------------------|
--------------------------4--2--0--2----------------|
--------------------------------------1-------------|
----------------------------------------------------|


----------------------------|-----6----------|--2--4-------||
--3--1--0--1----------------|--0--2----------|--0--0-------||
--2--2--2-------------------|----------------|-----2-------||
--------------2--2--1-------|----------------|--4----------||
----------------------------|--------4--2----|-------------||
----------------------------|----------------|--------3----||

Login or Register to remove this ad.