Ahead On Our Way (Final Fantasy VII) Guitar Tab

Submitted: Dec 29, 2016 by chimatte (Last updated: Jan 30, 2017)

5
Average: 5 (4 votes)
Download | Listen
Game: Final Fantasy VII
Composer(s): Nobuo Uematsu
Style: Arrangement, Fingerstyle
Series: Final Fantasy

Click here for a video example.

AutoScroll: Slow | Medium | Fast
AHEAD ON OUR WAY
Nobuo Uematsu
Dropped D Tuning



      E  E  E  E  E  E  E  E     E  E  E  E  E  E  E  E     E  E  E  E   E  E  E  S S     E   E   E  E   E  E  E  E   
E||---5--3--2--3--5-----------|--2--0--0-----------------|--0--7--5---------------7-9-|--10--------------------------|
B||---------------------0--3--|--------0-----------0-----|--------5--8--10------------|------12--12------------------|
G||*--------0-----------0-----|-----0-----0-----0-----0--|-----5-----5---------7------|------------------------------|
D||*-----0-----0-----0-----0--|--------------------------|---------------0--7-----7---|-----------9-----12-----9-----|
A||---------------------------|--------------------------|--0-------------------------|-------9------9------9-----9--|
D||---5-----------5-----------|--2-----------2-----------|----------------------------|---9--------------------------|


  E  E  E  E  E  E  E  E     E  E  E  E  E  E  E  E     E  E  E  E  E  E  E  E     E  E   E  E  E  E  E  E     E  E  E  E  E  E  E  E   
--7--8--7--5--3--------5--|--7-----------2--0--------|-----0--2--3--5-----------|------------7--8-----------|--5--3--2--3--5-----------|
--------5--0--------4-----|-----0--1--3--------0-----|--------1-----------------|-----8--10-----------------|--------------------0--3--|
-----5-----------3-----0--|--------0--4-----0-----0--|-----2-----2--5-----5-----|------------------------5--|--------0-----------0-----|
--5-----------------------|-----0--------------------|-----------------7-----7--|---------7-----0--4--7-----|-----0-----0-----0-----0--|
--------------3-----------|--------------------------|--0-----------------------|--0--6------6--------------|--------------------------|
--------------------------|--5-----------2-----------|--------------------------|---------------------------|--5-----------5-----------|


  E  E  E  E  E  E  E  E     E  E  E  E   E  E  E  S S     E   E   E  E   E  E  E  E     E  E  E  E  E  E  E  E   
--2--0--0-----------------|--0--7--5---------------7-9-|--10--------------------------|--7--8--7--5--3--------5--|
--------0-----------0-----|--------5--8--10------------|------12--12------------------|--------5--0--------4-----|
-----0-----0-----0-----0--|-----5-----5---------7------|------------------------------|-----5-----------3-----0--|
--------------------------|---------------0--7-----7---|-----------9-----12-----9-----|--5-----------------------|
--------------------------|--0-------------------------|-------9------9------9-----9--|--------------3-----------|
--2-----------2-----------|----------------------------|---9--------------------------|--------------------------|


  E  E  E  E  E  E  E  E     E  E  E  E  E  E  E  E     E  E  E  E  E  E  E  E     E  E  E  E  E  E  E  E     E  E  E  E  E  E  E  E   
--7-----------2--0--------|--0--7--5-----5--------2--|-----3--3-----------------|--------------------------|--------------------------|
-----0--1--3--------0-----|--------5--8--------3-----|--------------0-----------|--------------0-----------|-----------0--3-----0-----|
--------0--4-----0-----0--|-----5-----5-----2-----2--|--------0-----------0-----|--------0-----------0-----|-----0--2-----4-----0--0--|
-----0--------------------|--------------0-----------|-----0-----0-----0-----0--|-----0-----0-----0-----0--|--4--0--5--0-----0-----0--|
--------------------------|--0-----------------------|--------------------------|--------------------------|--------------------------|
--5-----------2-----------|--------------------------|--5-----------------------|--5-----------------------|--5-----------------------|


  E  E  E  E  E  E  E  E     E  E  E  E  E  E  E  E     E  E  E  E  E  E  E  E     E  E  E  E  E  E  E  E     E  E  E  E  E  E  E  E   
--------------------------|--------------0-----------|--------------------------|--------------2-----0--2--|--5--3--5--7--0-----------|
--------------------------|--------0--1-----1--------|--------------------------|-----0--2--3-----3--------|--------------------0-----|
--------------------------|--1--2--2--------------2--|--0-----------------------|--3-----4-----------4-----|--------0--------0-----0--|
--4-----2-----------------|-----2-----2--------2-----|--------------4-----------|-----4-----4--0--4-----4--|--------------------------|
--------2-----------2-----|--0-----------3-----0-----|-----0--3--0-----0--3--0--|--------------------------|-----2--------7-----------|
--2--5-----5--2--5-----5--|--------------------------|--0-----------0-----------|--5-----------------------|--2-----------------------|


  E  E  E  E  E  E  E  E     E  E  E  E  E  E  E  E     E  E  E  E  E  E  E  E     E  E  E  E  E  E  E  E     E  E  E  E  E  E  E  E   
--0-----------------------|--------------------------|--------------------------|--------------------------|--0-----------------------|
-----0--1-----------------|-----------0--------3-----|--3-----------------0-----|--------------------------|-----------------1--------|
--------2--1--2-----2-----|-----1--2-----5--------5--|--4-----0-----------0--0--|--------------------------|--------2-----------2--0--|
-----2-----2-----2-----2--|--------------4-----------|-----0-----0-----0-----0--|--4--2--4--5--2-----------|-----2-----2-----2-----2--|
--0-----------3-----------|-----0--3--0-----0--3--0--|--------------2-----------|--------2-----------2-----|--0-----------3-----0-----|
--------------------------|--0-----------------------|--5-----------------------|--2--5--------2--5-----5--|--------------------------|


  E  E  E  E  E  E  E  E       W                  
---------------------------||--3----------------||
---------------------------||--0----------------||
-----------0--2-----------*||--0----------------||
--4-----------4-----------*||-------------------||
-----0--3--0-----0--3--0---||-------------------||
--0------------------------||--5----------------||




Duration Legend
---------------
W - whole
H - half
Q - quarter
E - 8th
S - 16th
. - note dotted
|-n-|  - n-tuplets


Login or Register to remove this ad.

1 comment on Ahead On Our Way

I just watched the video you

5

I just watched the video you posted on the other tab. It sounds fantastic, nice work!