Ads

Ahead On Our Way (Final Fantasy VII) Mandolin Tab

Submitted: May 17, 2010 by LoneCentrist

5
Average: 5 (1 vote)
Download | Listen
Game: Final Fantasy VII
Composer(s): Nobuo Uematsu
Style: Transcription
Series: Final Fantasy

AutoScroll: Slow | Medium | Fast
Ahead on Our Way
Final Fantasy VII
Composed by Nobuo Uematsu
Tabbed by Rob Van
5/16/10

E|-5-3-2-3-5-------2-0-0------0-7-5-3-5---7-9-10-7-7---|
A|-------------2-5-------------------------------------|
D|-----------------------------------------------------|
G|-----------------------------------------------------|

E|-7-8-7-5-3---5-7-------2-0-0---0-2-3-5---3-5-7-8---|
A|-----------------2-3-5-----------------------------|
D|---------------------------------------------------|
G|---------------------------------------------------|

E|-5-3-2-3-5-------2-0-0------0-7-5-3-5---7-9-10-7-7---|
A|-------------2-5-------------------------------------|
D|-----------------------------------------------------|
G|-----------------------------------------------------|

E|-7-8-7-5-3---5-7-------2-0-0---0-7-5-3-5---2---3-3---|
A|-----------------2-3-5-------------------------------|
D|-----------------------------------------------------|
G|-----------------------------------------------------|

E|---------------------------------0---------------|
A|-----0-2-5---2-------------0-2-3---3---0---------|
D|-4-5-----------5-4-2-----6-----------2---5---4---|
G|-------------------------------------------------|

E|---------2---0-2-5-3-5-7-0-----0----------------------------|
A|-0-2-4-5---5---------------------4-5---0-----0-2-3--5-3-5---|
D|-------------------------------------6-----5----------------|
G|------------------------------------------------------------|

E|-------------------0----------------------------|
A|-2-----------------------3-0----------------0---|
D|---5-4-2-4-5-2---------------5-4----------5-----|
G|------------------------------------------------|
Login or Register to remove this ad.