Ads

Aerith's Theme (Super Guitar Bros Version) (Final Fantasy VII) Guitar Tab

Submitted: Jun 11, 2017 by Coolbreeze (Last updated: Jun 13, 2017)

5
Average: 5 (1 vote)
Download | Listen
Game: Final Fantasy VII
Composer(s): Nobuo Uematsu
Style: 2 or more instruments, Arrangement, Transcription
Series: Final Fantasy

Click here for a video example.

AutoScroll: Slow | Medium | Fast
				   Aerith's Theme
				~Final Fantasy VII~

Music by Nobuo Uematsu
Arranged by Super Guitar Bros
Tabbed by Coolbreeze
Tempo = 71

Drop D Tuning


Guitar 1

     E   E   H.              E   E  H.            
E||---------10------------|--8-------------------|
B||--7--10----------------|-----10---------------|
G||-----------------------|---------9------------|
D||-----------------------|----------------------|
A||-----------------------|----------------------|
D||-----------------------|----------------------|


   E   E   E  E   E   E  E  E      H        H            E   E   Q    H         
----------10--9--12--10--7--9--|---------------------|----------10-------------|
------10-----------------------|--10-----------------|------10-----------------|
--11---------------------------|------------9--------|--11---------------------|
-------------------------------|---------------------|-------------------------|
-------------------------------|---------------------|-------------------------|
-------------------------------|---------------------|-------------------------|


                                                                 ^         
  E   E  H        E  S S    Q    Q     E  E  E  E     Q    Q     H         
--8----------------------|-------------------------|----------------------|
-----10------------------|-------------------------|------------11--------|
---------9-----------7-9-|--7---------10--9--7--9--|--7----------7--------|
-------------------------|-------------------------|----------------------|
-------------------------|-------------------------|----------------------|
-------------------------|-------------------------|----------------------|


  ^                                                                            
  E  E  E  E  E  E  E  E     E  E  E  E   Q    Q       E  E  E  E  Q    E  E   
--------------2--------2--|--5-----2--5--10---------|--------------2-------0--|
-----------3--------3-----|-----3-------------------|-----------3-------3--0--|
--------2--------2--------|-------------------------|--------4----------------|
--0--4--------------------|-------------------------|-----4-------------------|
--0-----------------------|-------------------------|--2----------------------|
--0-----------------------|-------------------------|-------------------------|


                                                    ^                     
  E  E  E  E  Q    Q       E  E  E  E  Q    Q       E  E  E  E  H         
------------------------|------------------------|--------------2--------|
--------------7---------|--------------8---------|-----------3-----------|
--6--------6------------|-----------7--6----7----|--------2--------------|
--7-----7---------------|--------9---------------|--0--4-----------------|
-----4------------------|-----5------------------|--0--------------------|
--4---------------------|--5---------------------|--0--------------------|


  E  E  E  E  H           Q    Q    Q    Q       E  E  E  E  H         
--------------9--------|--7---------5---------|-----------------------|
-----------------------|------------7---------|--------------8--------|
-----------------------|--6-------------------|-----------------------|
--------4--6--7--------|----------------------|--------5--7--9--------|
-----4-----------------|----------------------|-----5-----------------|
--4--------------------|----------------------|--5--------------------|


  ^         ^                                                         
  Q    Q    Q    Q       E  E  E  E  H           Q    Q    Q    Q     
----------------------|--------------9--------|--7---------5---------|
--7---------5---------|-----------------------|------------7---------|
----------------------|-----------------------|--6-------------------|
--7---------5---------|--------4--6--7--------|----------------------|
----------------------|-----4-----------------|----------------------|
----------------------|--4--------------------|----------------------|


                            ^                                             
  E  E  E  E  Q    E  E     Q     Q     Q    Q       Q.     E  Q    Q     
-------------------------|-------10-----9----7----|--5-------------------|
-------------------------|-------12----10----8----|--7------7--7---------|
-------------------------|--7---------------------|------------7---------|
--------5--7--9----9-----|--9---------------------|----------------------|
-----5--------5----5-----|--5---------------------|----------------------|
--5-----------5-------5--|------------------------|----------------------|


                            ^                                                 
  Q     Q     Q    Q        Q    E   E   Q    Q        Q     Q     Q    Q     
-------10-----9----7----|---9-------14--14---------|--------10-----9----7----|
-------12----10----8----|--10-----------14---------|--12----12----10----8----|
------------------------|--------------------------|-------------------------|
------------------------|--------------------------|-------------------------|
------------------------|--------------------------|-------------------------|
------------------------|--------------------------|-------------------------|


             ^                                                        
  Q    E  E  H           H        Q    E  E     E  E  E  E  H         
--5-------------------|-------------------2--|--3--2-----------------|
--5-------5--5--------|--5--------5----5-----|--------5--3-----------|
-------------6--------|--4--------2-------2--|--4--2-----------------|
----------------------|----------------5-----|--------5--------------|
----------------------|----------------------|-----------------------|
----------------------|----------------------|-----------------------|


                          ^                                       
  H        E  E  E  E     W                   H.            Q     
-----------3--2--------|-------------------|---------------10----|
-----------------3--5--|--3----------------|---------------------|
-----------4--2--------|--2----------------|---------------------|
-----------------4--5--|--4----------------|---------------------|
-----------------------|-------------------|---------------------|
-----------------------|-------------------|---------------------|


  Q     Q     H           H        S  S  E   E  E     H        H         
--9--------------------|---------------------------|--------------------|
-------12----10--------|---------------------------|-----------8--------|
-----------------------|--9--------9-11-12--11--9--|--7-----------------|
-----------------------|---------------------------|--------------------|
-----------------------|---------------------------|--------------------|
-----------------------|---------------------------|--------------------|


                                             ^                 
   W                    W                    W                 
--------------------|--------------------|--------------------|
--12----------------|--------------------|--10----------------|
--------------------|---9----------------|---9----------------|
--------------------|--12----------------|--------------------|
--------------------|--------------------|--------------------|
--------------------|--------------------|--------------------|


   W                   H         H            E   E   H.            
--------------------|---------------------|----------10------------|
--------------------|---------------------|------10----------------|
---9----------------|--9------------------|--11--------------------|
--12----------------|-----------10--------|------------------------|
--------------------|---------------------|------------------------|
--------------------|---------------------|------------------------|


                                                                 ^         
  E   E  H        E  S S    Q    Q     E  E  E  E     Q    Q     H         
--8----------------------|-------------------------|----------------------|
-----10------------------|-------------------------|------------11--------|
---------9-----------7-9-|--7---------10--9--7--9--|--7----------7--------|
-------------------------|-------------------------|----------------------|
-------------------------|-------------------------|----------------------|
-------------------------|-------------------------|----------------------|


   ^                  
   W                  
--------------------||
--10----------------||
---9----------------||
---0----------------||
---0----------------||
---0----------------||




Guitar 2

     W                   W                   W                 
E||-------------------|--5----------------|-------------------|
B||--5----------------|--5----------------|--5----------------|
G||--7----------------|--7----------------|--7----------------|
D||-------------------|-------------------|-------------------|
A||-------------------|-------------------|-------------------|
D||-------------------|-------------------|-------------------|


                       ^    ^    ^    ^       ^    ^    ^    ^     
  H        H           Q    Q    Q    Q       Q    Q    Q    Q     
--------------------|-------2----0---------|-------0----0---------|
--5-----------------|-------3----3---------|-------1----0---------|
-----------5--------|-------2----2----2----|-------0----0----2----|
--------------------|--0----0----0----0----|--2----2----2----2----|
--------------------|--0--------------0----|--0-------------------|
--------------------|--0--------------0----|----------------------|


  ^    ^    ^    ^       ^    ^    ^    ^       ^                 
  Q    Q    Q    Q       Q    Q    Q    Q       W                 
----------------------|------------6---------|--5----------------|
----------------------|------------3---------|--3----------------|
--3-------------------|--3----3----3----3----|--2----------------|
--3----3----3----3----|--3----3----3----3----|--4----------------|
--1----1----1----1----|--5----5----5----5----|--0----------------|
----------------------|----------------------|--0----------------|


  H.           E  E     S  S H        E  E  E       Q    H         E  E   
---------------------|--------------------------|---------------------9--|
------------------5--|--5s-7-L-----------7--8s--|--10-------------12-----|
---------------7-----|--------------------------|------------------------|
---------------------|--------------------------|------------------------|
---------------------|--------------------------|------------------------|
---------------------|--------------------------|------------------------|


  S   E.  Q    Q    Q       S  S H        E  E  E     Q    Q    H         
--9h-10---7--------------|--5h-7-5-----------5-----|---------------------|
--------------------8----|----------------------7--|---------------------|
-------------------------|-------------------------|--6------------------|
-------------------------|-------------------------|---------------------|
-------------------------|-------------------------|---------------------|
-------------------------|-------------------------|------------4--------|


  E  E  E  Q.     S  S E     H        H           E  E  E  E  Q    E  E   
-----------4------5s-7-5--|--7-----------------|-----------5-------5-----|
--------7-----------------|--------------------|--------8-----8-------7--|
--6--6--------------------|--------------------|-----7-------------------|
--4--------4--------------|--------------------|--5----------------------|
--------------------------|--------------------|-------------------------|
--------------------------|-----------5--------|-------------------------|


  Q    Q    H           E  E  E  Q.     E  E     S   E.  H.            
---------------------|-----------4------7--9--|--9h-10----------------|
---------------------|--------7---------------|-----------------------|
--6------------------|--6--6------------------|-----------------------|
---------------------|--4---------------------|-----------------------|
---------------------|------------------------|-----------------------|
------------4--------|------------------------|-----------------------|


       ^      ^            ^    ^    ^    ^       ^    ^    ^    ^     
  Q    S  E.  Q    Q       Q    Q    Q    Q       Q    Q    Q    Q     
------------------------|----------------------|----------------------|
-------2s-3---2---------|--3---------3---------|----------------------|
-------0------0---------|--2----2----2----2----|--0---------2---------|
-------0------0---------|--0----0----4----0----|--0----0----4----5----|
-------0------0---------|--0-------------------|--0----0----2----0----|
--5-----------5----5----|--0-------------------|--5----5----2----5----|


  ^    ^    ^            ^    ^    ^    ^       ^    ^    ^    ^     
  Q    Q    Q    Q       Q    Q    Q    Q       Q    Q    Q    Q     
----------------------|----------------------|----------------------|
----------------------|-------3----2---------|------------2---------|
--2-------------------|--4----4----2----4----|--2----2----2----2----|
--4----4----6----7----|--4----4----4----5----|--2----2----2----2----|
--0----0----0---------|--2---------4----5----|--0----0----0----0----|
--4----4----6---------|----------------------|----------------------|


  ^    ^    ^    ^       ^                                        
  Q    Q    Q    Q       H        Q    Q       H        H         
----------------------|---------------------|--------------------|
--2---------2---------|---------------------|--------------------|
--0----0----2---------|---------------------|--------------------|
--2----2----2----2----|--7-------------4----|--5--------5--------|
--0----0----0----0----|--5--------7---------|--------------------|
----------------------|--5--------5----4----|--2--------2--------|


  ^                                                                             
  W                   W                   W                   W                 
-------------------|-------------------|-------------------|-------------------|
--3----------------|-------------------|-------------------|-------------------|
--2----------------|-------------------|-------------------|-------------------|
--0----------------|-------------------|-------------------|-------------------|
--0----------------|-------------------|-------------------|-------------------|
--0----------------|-------------------|-------------------|-------------------|


  W                   W                    E   E   H.            
-------------------|-------------------|----------10------------|
-------------------|-------------------|------10----------------|
-------------------|-------------------|--11--------------------|
-------------------|-------------------|------------------------|
-------------------|-------------------|------------------------|
-------------------|-------------------|------------------------|


  E   E  H.               E   E   E  E   E   E   E  E      H        H         
--8-------------------|----------10--9--12--10------9--|---------------------|
-----10---------------|------10-----------------12-----|--10-----------------|
---------9------------|--11----------------------------|------------9--------|
----------------------|--------------------------------|---------------------|
----------------------|--------------------------------|---------------------|
----------------------|--------------------------------|---------------------|


  ^    ^    ^    ^       ^    ^    ^    ^       ^    ^    ^    ^     
  Q    Q    Q    Q       Q    Q    Q    Q       Q    Q    Q    Q     
-------2----0----0----|-------0----0---------|----------------------|
-------3----3----3----|-------1----0---------|------------3---------|
-------2----2----2----|-------0----0----2----|--3---------3----3----|
--0----0----0----0----|--2----2----2----2----|--3----3----3----3----|
--0-------------------|--0-------------------|--1----1----1----1----|
--0-------------------|----------------------|----------------------|


  ^    ^    ^    ^       ^                  
  Q    Q    Q    Q       W                  
----------------------|-------------------||
--3---------3---------|--3----------------||
--3----3----3----3----|--2----------------||
--3----3----3----3----|--4----------------||
--5---------5---------|--0----------------||
----------------------|--0----------------||
Login or Register to remove this ad.