Ads

Aerith's Theme (Final Fantasy VII) Guitar Tab

Submitted: May 03, 2022 by Neil Dobbs (Last updated: May 04, 2022)

5
Average: 5 (2 votes)
Download | No audio :(
Game: Final Fantasy VII
Composer(s): Nobuo Uematsu
Style: Fingerstyle
Series: Final Fantasy

Click here for a video example.

AutoScroll: Slow | Medium | Fast
Composer: Nobuo Uematsu
Arrangement for Guitar: Nobuyuki Hirakura
From the book, Final Fantasy Guitar Solo Collections
Performance: Yuji Moriya aka The Classical Rebel on YouTube
https://www.youtube.com/watch?v=JhgeM1NaAU4&ab_channel=TheClassicalRebel
Tabbed by Neil Dobbie on 03/05/22
I – index m – middle – r – ring p – pinky R – roll B – barre

                                                   R                                                            
e--------5----3----------------5--4--7--5-----4----0-------------------------------
B-----5----------5----------5--------------7-------0--0----------------------------
G--6----------------4----6-------------------------0--0----------2----0------------
D-------------------------------------------------------------2-------2--2---------
A--0----------2----------0--------------------------------4----------------2-------
E--------------------------------------------------7------5-----------0------------


e---------------1------------------------------------------------------------------
B---------------1----------------------3-----3-----3-------------2-----2-----2-----
G------------2-------------------------2-----2-----2-------------2-----2-----2-----
D-----------------------------------3-----3-----3-----3-------2-----2-----2-----2--
A--0h2---0--------3--2--0--2----0-------------------------0------------------------
E----------------------------------------------------------------------------------

                           B                   B                                                       
e------------------------------------------------------------2--4--
B--------2-----2--------0--2-------------2--3--5--------5----------
G--------2-----2-----2--------------2----------------6-------------
D-----2-----2-----2--------------4----------------6----------------
A--0--------------------------4------------------------------------
E--------------------------2-------------------4-------------------

                 R              B
e--5-----2-------0h2--0------------------4-----------4---------
B--------3---3---2--------5-----------5-----------5------7--5--
G-----2----------------------6-----6-----------6---------------
D-------------------------------6------------------------------
A--0-------------0---------------------------------------------
E-------------------------------4-----------4------------------

                                   B
e-----------5------------5------------------4------------4---2--4--
B--------7------------7-----5------------5------------5------------
G-----7------------7-----------6------6------------6---------------
D--7-------------------------------6-------------------------------
A--0------------0--------------------------------------------------
E----------------------------------4------------4------------------
                                                                                                                                                
                                           R    R                   R
e--5--------------------------5---4---2----0------------5---4---2---4---9--9-------
B-----------3------3----------7---5---3----2----2-------7---5---3---5--------------
G--------2------2-----2--------------------2----2----------------------------------
D-----4-----------------------------------------2----0-----------------------------
A--0----------------------0----------------0----0-------------------4------6--7--4-
E----------------------------------------------------------------------------------

  p/m      B   R         R            R                   B                      
e--5---4--------------------------------------------------------------------
B--7---5---7---0--0-------------0--2--3--2--0-------------3---3--2----0----- 
G----------7---1--1-------------------2--------2----------4---------2----2--
D------6---7---2---------4---2--------0-------------------4-----------------
A--------------2---------5------------0-----------2---4---2--------------0--
E------------------------0--------------------------------------------------


e------------------------------------------------------------5----3--------
B---------------------------------------------------------5----------5-----
G--2---1-----------------------------------------------6----------------4--
D----------4---2--------------0-------------0----4-------------------------
A-------------------2----2h4-----4--2--0---------------0----------2--------
E--------------------------------------------------------------------------

                            R        Har*
e--------5--4--7--5-----4---0---------12*--
B-----5--------------7------0---0-----12*--
G--6------------------------0---0----------
D------------------------------------------
A--0----------------------------7-----12*--
E---------------------------7--------------
Login or Register to remove this ad.