Aerith's Theme (Final Fantasy VII) Ukulele Tab

Submitted: May 29, 2019 by keyofaaron (Last updated: Jun 23, 2019)

0
Download | No audio :(
Game: Final Fantasy VII
Composer(s): Nobuo Uematsu
Style: Arrangement, Fingerstyle, Transcription
Series: Final Fantasy

Click here for a video example.

AutoScroll: Slow | Medium | Fast
For the official ukulele cover this tab is based on, visit the following YouTube link:


https://www.youtube.com/watch?v=OwLImK8Q0xk (tabbed and performed by Key of Aaron)





   D                                 Am

   1 e + a 2 e + a 3 e + a 4 e + a   1 e + a 2 e + a 3 e + a 4 e + a

A|-----0---5-----------------------|-3-------------------------------|

E|-2-------------------------------|-----5---------------------------|

C|-2-------------------------------|-4-------4-----------------------|

G|---------------------------------|---------------------------------|





   D                                 Am

   1 e + a 2 e + a 3 e + a 4 e + a   1 e + a 2 e + a 3 e + a 4 e + a

A|-----0---5---4---7---5-------4---|---------------------------------|

E|-2-----------------------7-------|-5-------------------------------|

C|-2-------------------------------|-4---------------4---------------|

G|---------------------------------|-----------------5---------------|





   D                                 Am

   1 e + a 2 e + a 3 e + a 4 e + a   1 e + a 2 e + a 3 e + a 4 e + a

A|-----0---5-----------------------|-3-------3-------2-------0-------|

E|-2-------2-------0---------------|-5---5---------------------------|

C|-2-----------------------2-------|-4-------4-------------------2h4-|

G|-2-------------------------------|---------------------------------|





   Bb                                Gm

   1 e + a 2 e + a 3 e + a 4 e + a   1 e + a 2 e + a 3 e + a 4 e + a

A|---------------------------------|-----------------1---------------|

E|-1-----------1---1---0-------0---|-3-------------------------------|

C|-2-------2-------2-------2-------|-2---------------2---------------|

G|-3---3-----------3---------------|-0-------------------------------|





   D

   1 e + a 2 e + a 3 e + a 4 e + a   1 e + a 2 e + a 3 e + a 4 e + a

A|-0-----------0---5---------------|-------------0---5---------------|

E|-2-------2-----------------------|---------2-----------------------|

C|-2---2---------------------------|-----2-------------------2---4---|

G|-2-------------------------------|-2-------------------------------|





   Bm                                F#m

   1 e + a 2 e + a 3 e + a 4 e + a   1 e + a 2 e + a 3 e + a 4 e + a

A|-------------5-------------------|-------------4---------------4---|

E|-2-------2---------------2---3---|-5-------5---------------7-------|

C|-2---2-------------------2---4---|-6---6---------------------------|

G|-4-------------------------------|-2-------------------------------|





   G                                 D

   1 e + a 2 e + a 3 e + a 4 e + a   1 e + a 2 e + a 3 e + a 4 e + a

A|-5-----------5-------------------|-------------5-------------------|

E|---------7-----------------------|-5h7-5-------------------5---2---|

C|-----2-------------------7-------|-2-------2---------------2-------|

G|-0---------------6-------7-------|-2-----------------------2-------|





   F#m                               F#sus4          F#m

   1 e + a 2 e + a 3 e + a 4 e + a   1 e + a 2 e + a 3 e + a 4 e + a

A|-------------4---4---------------|-2---------------0-------2---0---|

E|---------2-----------------------|-2-------------------------------|

C|-1---1-----------1---------------|-----------------1-------1-------|

G|-2---------------2---------------|-2---------------2-------2-------|





   G                                 Gsus2           G

   1 e + a 2 e + a 3 e + a 4 e + a   1 e + a 2 e + a 3 e + a 4 e + a

A|-------------5-------------------|--------------------------------|

E|---------7-------7---------------|-5---------------3-------5---2--|

C|-2---2-----------2---------------|-2---------------2-------2------|

G|-0---------------0---------------|-0---------------0-------0------|





   F#m                               F#sus4          F#m

   1 e + a 2 e + a 3 e + a 4 e + a   1 e + a 2 e + a 3 e + a 4 e + a

A|-------------4---4---------------|-2---------------0-------2---4---|

E|---------2-----------------------|-2-------------------------------|

C|-1---1-----------1---------------|-----------------1-------1-------|

G|-2---------------2---------------|-2---------------2-------2-------|





   G                                                 A7      G

   1 e + a 2 e + a 3 e + a 4 e + a   1 e + a 2 e + a 3 e + a 4 e + a

A|-5-----------5-------------------|---------5-------4-------2-------|

E|-7-------7-----------------------|---------7-------5-------3-------|

C|-2---2---------------------------|-----2---2-------1-------2-------|

G|-0-------------------------------|-0-------0-------0-------4-------|





   D                                 G               Bsus2   G

   1 e + a 2 e + a 3 e + a 4 e + a   1 e + a 2 e + a 3 e + a 4 e + a

A|-0-----------0-------------------|-2-------5-------4-------2-------|

E|-2-------2-------2---------------|---------3-------7-------3-------|

C|-2---2-------------------2-------|-----2-----------6---------------|

G|-2-------------------------------|-0-----------------------0-------|





   F#m             F#sus2  F#m       Bm              F#m     G

   1 e + a 2 e + a 3 e + a 4 e + a   1 e + a 2 e + a 3 e + a 4 e + a

A|-4-----------9---9---------------|-2-------5-------4-------2-------|

E|-5-------5-----------------------|-2-------2-------2-------3-------|

C|-6---6-----------8---------------|-2---2-----------1-------2-------|

G|-2-----------6-----------2-------|-4-------------------------------|





   A                                 G               A

   1 e + a 2 e + a 3 e + a 4 e + a   1 e + a 2 e + a 3 e + a 4 e + a

A|-4-----------4---4---------------|---------------------------------|

E|-5-------5-------5---------------|-7---------------5-------3---5---|

C|-4---4-----------4---------------|-7---------------4-------4---6---|

G|---------------------------------|-7---------------6---------------|





   G                                                 Em

   1 e + a 2 e + a 3 e + a 4 e + a   1 e + a 2 e + a 3 e + a 4 e + a

A|-2---0-------5-------------------|-----------------2---0-----------|

E|-3---2---3---------------2-------|-3---------------3---2-------0---|

C|---------4---2---4---------------|-----------------4---2---2---1---|

G|---------------------------------|-------------------------2-------|





   D                                                 F#m     G

   1 e + a 2 e + a 3 e + a 4 e + a   1 e + a 2 e + a 3 e + a 4 e + a

A|---------------------------------|---------5-------4-------2-------|

E|---------------------------------|---------------------------------|

C|-2-------------------------------|---------------------------------|

G|-2-------------------------------|---------------------------------|





   A                                 G

   1 e + a 2 e + a 3 e + a 4 e + a   1 e + a 2 e + a 3 e + a 4 e + a

A|---------------------------------|---------------------------------|

E|-5-------------------------------|-3---2---------------------------|

C|-----------------4-----------4/6-|---------4---2-------------------|

G|---------------------------------|---------------------------------|





   G

   1 e + a 2 e + a 3 e + a 4 e + a

A|-----------------2---------------|

E|-3-------------------------------|

C|---------------------------------|

G|---------------------------------|





Recording repeats song three times and fades out around the 5th measure of the 3rd pass.
Login or Register to remove this ad.