Ads

Aerith's Theme (Final Fantasy VII) Mandolin Tab

Submitted: Jun 06, 2009 by LoneCentrist (Last updated: Feb 04, 2010)

5
Average: 5 (2 votes)
Download | Listen
Game: Final Fantasy VII
Composer(s): Nobuo Uematsu
Style: Transcription
Series: Final Fantasy

AutoScroll: Slow | Medium | Fast
Aerith's Theme
Final Fantasy VII
Composed by Nobou Uematsu
Tabbed by Rob Van
6/6/09

E|---------------------------0------------|
A|---0-5----3-0--------0-5-4---5-2-4-0----|
D|-4------------2----4------------------2-|
G|----------------------------------------|

E|------------------------------------|
A|---0-5----3-0-----------------------|
D|-4------------2----0h2p0--3-2-0-2-0-|
G|------------------------------------|

E|--------------------------------------|
A|--------------0----2-4-5--2-----0h2p0-|
D|-0-2-4----4-5----------------5--------|
G|--------------------------------------|

E|----------------------------------------------|
A|-0------------2-0----------0------------2-4-5-|
D|---4--------------0----------4----------------|
G|-----5-------------------------5--------------|

E|--------------------------------2-2-|
A|-5--4--2--0---------5--4--2--4------|
D|---------------4--------------------|
G|------------------------------------|

E|---------------------------------------------|
A|-5--4--2--0----------------------------------|
D|---------------2----2-4-5-4-2-0----5-4-0-2-0-|
G|---------------------------------------------|

E|------------------------------------------|
A|-5--4--2--0-----------------------------2-|
D|---------------2----2-4-5-4-2-0----5------|
G|------------------------------------------|
Login or Register to remove this ad.

1 comment on Aerith's Theme

amazing

5

Best tab ever