Ads

Seventh Heaven - Tifa's Theme (Final Fantasy VII Remake) Guitar Tab

Submitted: May 03, 2020 by guitarsvd (Last updated: May 08, 2020)

5
Average: 5 (3 votes)
Download | No audio :(
Game: Final Fantasy VII Remake
Composer(s): Nobuo Uematsu, Masashi Hamauzu
Style: Arrangement, Artificial harmonics, Fingerstyle, Natural harmonics
Series: Final Fantasy

Click here for a video example.

AutoScroll: Slow | Medium | Fast
Title: Seventh Heaven (Tifa's Theme)
SubTitle: Final Fantasy VII Remake
Artist: Cecil Chau (GuitarSVD)
Music: Nobuo Uematsu
Tempo = 72
Track 1

Legend
L - tied note
x - dead note
h - hammer on/pull off
b - bend
s - slide
~ - vibrato
g - ghost note
> - accentuated note
t - trill
M - palm mute
. - staccato
P - popping (bass)
S - slapping (bass)
+ - tapping
W - wide vibrato
< - fade in
w - whammy bar
= - tremolo picking
v - brush up
^ - brush down
V - pick stroke up
n - pick stroke down

     ^
E |-------------|--5-------------------------------------|
B |--12-10------|-----8----------------------------------|
G |--12---------|--------------5-----5-------------------|
D |--10-10------|-----------------5----------------------|
A |--8----------|--------------7-------------------------|
D |-------------|----------------------------------------|


-------------------------------|
--0--------0--1-----0----------|
--0--2--2-----2--------2-------|
-----3-------------------------|
-------------------------------|
--------------------------3----|


--------------------0--3----------------------------|
--------------------0-------------------------------|
--2-----0-------------------------------------------|
----------------------------------------------------|
-----------------------------2L-2-------------------|
--------------------------2-------------------------|


--5--------------------7-------|--7--5----------|--3--2L---------|
--------------------5-----8----|--------5--5----|--3--4L---------|
-----------2h-4--6-------------|--------5-------|--2--2L---------|
--------2----------------------|--------0-------|--------0-------|
-----0-------------------------|----------------|----------------|
-------------------------------|----------------|-----------0L---|


--2-----------------------------------------------0----|
--4--------------------------------------------3-------|
--2-----------------------------------------2----------|
-----------------------------------0--2h-4-------------|
--------------------------------0----------------------|
-----0-----------------------0-------------------------|


--------------------------------10-12---------------------------------------|
--------------------0--------10-------7-------------------------------------|
-----------------------2--11------------------------------------------------|
-----------------0----------------------------------------------------------|
----------------------------------------------------------------------------|
----------------------------------------------------------------------------|


----------------------------------------------------|
--0-----------------0--------------0L-0-------------|
-----------------------2--------2-------------------|
-----0-----------0----------------------------------|
----------------------------------------------------|
--------------------------5-------------------------|


----------------------------------------------------|
--0-------------------------------------------------|
----------------------------------------------------|
-----1-----------1--3--1----------------------------|
--------------------------------0--3L-3-------------|
--------------------------5-------------------------|


--------------------------7----|
-----------------0-----8-------|
-----------0--------7----------|
--0-----------7----------------|
-------------------------------|
-----5-------------------------|


--------------------7-------------------------------|
----------------------------------------------------|
-----------------7-----------------5L-5-------------|
-----------------------7--------5-------------------|
-----------------------------6----------------------|
--------------------------5-------------------------|


--7-----------------7-------------------------------|
-----------------------------------0L-0-------------|
-----7-----------7----------------------------------|
-----------------------7-----0--7-------------------|
----------------------------------------------------|
--------------------------5-------------------------|


--7--10-------------3--2----------------------------|
-----------------0--------------0L-0----------------|
-----------------------------0-----7L-7-------------|
----------------------------------------------------|
----------------------------------------------------|
--------------------------9-------------------------|


--0-----------0--1-----0----------------------------|
--------------------3-----------1--3----------------|
-----------------------------0----------------------|
----------------------------------------------------|
--------------------------3-----------2-------------|
----------------------------------------------------|


-----------------0--8--7----------------------------|
--1--------------------------------0L-1-------------|
--------------------------------2-------------------|
-----------------------------2----------------------|
--------------------------0-------------------------|
----------------------------------------------------|


--8--0-----------0--8--7----------------------------|
-----------------------------------5L-5-------------|
--------------------------------5-------------------|
-----------------------------7----------------------|
--------------------------0-------------------------|
----------------------------------------------------|


--8--5-----------5--3--5----------------------------|
-----------------------------------7L-7-------------|
--------------------------------7-------------------|
-----------------------------0----------------------|
----------------------------------------------------|
--------------------------0-------------------------|


--7-----------------------5----|
-----------------0-----8-------|
-----------0--------7----------|
--------0-----7----------------|
-------------------------------|
-----5-------------------------|


--10-------8--------7-------------------------------|
--------------------------0-------------------------|
--------------------------0-----------------0-------|
-----------------------------------7--------9-------|
----------------------------------------------------|
----------------------------------------------------|


--------------8-----7-------------|
--12-10----10----------10---------|
--0-----13----------7-------------|
--------------------------10-7----|
--------------------------8-------|
----------------------------------|


--5-----------------0--3----------------------------|
--------8-------------------------------------------|
--------5-------------------------------------------|
-----------------------------5L-5-------------------|
--------------------------7-----------------1-------|
----------------------------------------------------|


--5-----------------5--3----------------------------|
-----------------------------------3--2-------------|
--------------------------------4-----2-------------|
-----------------------------2----------------------|
--------------------------0-------------------------|
----------------------------------------------------|


--3-----------2-------------------------------------|
--------------3-----0-----------1h-3----------------|
-----------------------2-----2----------------------|
-----------------0--------0-------------------------|
----------------------------------------------------|
--------------------------------------0-------------|


----------------------------------------------------|
--0-----------------0--------------0L-0-------------|
-----------------------2--------2-------------------|
-----0-----------0----------------------------------|
----------------------------------------------------|
--------------------------5-------------------------|


----------------------------------------------------|
--0-------------------------------------------------|
----------------------------------------------------|
-----1-----------1--3--1----------------------------|
--------------------------------0--3L-3-------------|
--------------------------5-------------------------|


--------------------------7----|
-----------------0-----8-------|
-----------0--------7----------|
--0-----------7----------------|
-------------------------------|
-----5-------------------------|


--8-----------------7-------------------------------|
----------------------------------------------------|
-----------------7-----------------5L-5-------------|
-----------------------7--------5-------------------|
-----------------------------6----------------------|
--------------------------5-------------------------|


--7-----------------7-------------------------------|
-----------------------------------0L-0-------------|
-----7-----------7----------------------------------|
-----------------------7-----0--7-------------------|
----------------------------------------------------|
--------------------------5-------------------------|


--7--10----------7--15-14---------------------------|
--0-----------------------------0-------------------|
-----------------------------0-----7L-7-------------|
-----------------------------------11L11------------|
----------------------------------------------------|
--------------------------9-------------------------|


--12----------0--------0----------------------------|
----------------------------------------------------|
-----------------10----------0----------------------|
--------------------12----------10-12---------------|
----------------------------------------------------|
--------------------------10----------9-------------|


----------------------------------------------------|
--------------------1--0--1--------0h-1-------------|
--------------------------------2-------------------|
-----------------2-----------2----------------------|
--------------------------0-------------------------|
----------------------------------------------------|


----------------------------------------------------|
--1-----------------1--0--------------1-------------|
--------------------------------2--4----------------|
-----2-----------2----------------------------------|
--------------------------0-------------------------|
----------------------------------------------------|


----------------------------------------------------|
--1--------------------------------1L-1-------------|
-----2-----------2--0--2----------------------------|
--------------------------------1-------------------|
--------------------------3-------------------------|
----------------------------------------------------|


-----------------0--3--8----------------------------|
--0-----------1-----------------------------3--5----|
--------------------------------0--2-----2----------|
-----------------------------0----------------------|
--------------------------------------0-------------|
--------------------------5-------------------------|


--10-------8--------7-------------------------------|
--------------------8--------------9L-9-------------|
--------------------------------7-------------------|
-----------------------------9----------------------|
--------------------------7-------------------------|
----------------------------------------------------|


--10-8--7--8--12----10-8----------|
--0-----0--10-13----10------------|
----------------------------------|
-----7----------------------------|
--------------------------8--0----|
----------------------------------|


--8-----7--------------7----------------------------|
--10----8-----------8-----------8-------------------|
----------------------------------------------------|
-----------------------------9----------------------|
--------------------------7-------------------------|
----------------------------------------------------|


--9-----------------5--3----------------------------|
--10-------------------------------10L10------------|
--9-----------------------------9-------------------|
-----------------------------11---------------------|
--------------------------0-------------------------|
----------------------------------------------------|


--3--2----------------------------|--3--------------3-------------|
--------------0--1--1-------------|--------------0--3-------------|
-----------2--------2-------------|-----------2--------4--5-------|
--------0-------------------------|--------0--------4-------------|
----------------------------------|-------------------------------|
----------------------------------|-----5-------------------------|


--------------------8--5-------|
--------------------------0----|
-----------------7--------0----|
-------------------------------|
-------------------------------|
--------------------------5----|


--7--0-----------5----------------------------------|
--------------------0--1-----------5L-5-------------|
--------------------------------5-------------------|
-----------------------------5----------------------|
--------------------------3-------------------------|
----------------------------------------------------|


-----------------3-----0----------------------------|
--3-----------------0--------------2--3-------------|
--------------------------------4-------------------|
-----------------------------4----------------------|
--------------------------2-------------------------|
----------------------------------------------------|


--------5-------------------------------------------|
--3--1-----3L-3--1--0--1----------------------------|
--------------------------------2-------------------|
-----------------------------2--------0-----1-------|
--------------------------0-------------------------|
----------------------------------------------------|


-----2--------------8--5----------------------------|
--0--3-----------3----------------------------------|
--------------------------------------0-------------|
--------------------------------2h-4----------------|
-----------------------------2----------------------|
--------------------------2-------------------------|


--7--0-----------5----------------------------------|
--------------------0--1-----------5L-5-------------|
--------------------------------5-------------------|
-----------------------------5----------------------|
--------------------------3-------------------------|
----------------------------------------------------|


-----------------------2----------------------------|
--3--------------0--3--------------3----------------|
--------------------------------2-----1-------------|
-----------------------------4----------------------|
--------------------------2-----------2-------------|
----------------------------------------------------|


--4-----------------------------------------------------0-----------------------
-----2L-2-----------2-----------------------------2-----------------------2-----
--------------------------------------------1-----------------------2-----------
-----------------------------------2--------------------------0-----------------
--------------------------0-----------------------------------------------------
--------------------------------------------------------------------------------


0-------------------|
------2-------------|
------------2-------|
--------------------|
--------------------|
--------------------|


--------------3-------------------------------------------------|
--6--4--3--4--------6-------------------------------------------|
--------------------------------3L-3--3-----------5--5----------|
-----------------------------5-----5L-5--5-----5--------5-------|
--------------------------3--------------------------------3----|
--------------------------------------------3-------------------|


--4--2--1--2--6-----8-------------------------------------------|
-----------------------------------------------------------9----|
-----------------------------3--3-----3-----------------8-------|
--------------------------1--------1--------------10-8----------|
-----------------------------------------1-----9----------------|
--------------------------------------------6-------------------|


--9-------------------------------------------------------------|
-----12-10-9--7--5-----5----------------------------------------|
--------------6-----7-----------11L11---------------------------|
-----------------------------11---------------------------------|
--------------------------9-------------------------------------|
--------------------------------------------4-------------------|


--5-----------------17-14-------------3-------------|
--5L----------5--13----------------5----------------|
--------------------------------5-------------------|
-----------------------------5----------------------|
--------------------------3-------------------------|
----------------------------------------------------|


--16----------------14-11---------|
--------------------------0-------|
-----16----------14---------------|
-----18---------------------------|
-----------------------------12---|
----------------------------------|


--12-9--8--9--4--0-----0----------------------------|
--------------------4--------9--------4-------------|
-----------------------------------9--------1-------|
--------------------------8-------------------------|
----------------------------------------------------|
----------------------------------------------------|


--2--------0-----------------0--5--0----------------|
-----------------------0h-1-----------1-------------|
--------------------2--------------------2----------|
-----------------2--------------------------2-------|
--------------1--------------------------------0----|
----------------------------------------------------|


--3--2--0--2--0-------------------|----------------------------------|
--5--3--1--3--1--3--2--3----------|--1--0-----0----------------------|
-----------------4--3--4----------|--------2-----2--0-----0----------|
----------------------------------|--------------------4-----0-------|
----------------------------------|----------------------------------|
--------------------------0--0----|-----------------------------0----|


----------------|-------------------------------|
----------------|--------------------0----------|
--0-------------|-----------------------2-------|
-----4L-0-------|--4--------------0-------------|
----------------|-------------------------------|
-----------0L---|--------------------------0----|


----------------------------------------------------|
--0-----------------0--------------0L-0-------------|
-----------------------2--------2-------------------|
-----0-----------0----------------------------------|
----------------------------------------------------|
--------------------------5-------------------------|


----------------------------------------------------|
--0-------------------------------------------------|
----------------------------------------------------|
-----1-----------1--3--1----------------------------|
--------------------------------0--3L-3-------------|
--------------------------5-------------------------|


--------------------------7----|
-----------------0-----8-------|
-----------0--------7----------|
--0-----------7----------------|
-------------------------------|
-----5-------------------------|


--8-----------------7-------------------------------|
----------------------------------------------------|
-----------------7-----------------5L-5-------------|
-----------------------7--------5-------------------|
-----------------------------6----------------------|
--------------------------5-------------------------|


--7-----------------7-------------------------------|
-----------------------------------0L-0-------------|
-----7-----------7----------------------------------|
-----------------------7-----0--7-------------------|
----------------------------------------------------|
--------------------------5-------------------------|


--7--10----------7--15-14---------------------------|
--0-----------------------------0-------------------|
-----------------------------0-----7L-7-------------|
-----------------------------------11L11------------|
----------------------------------------------------|
--------------------------9-------------------------|


--12----------0--------0----------------------------|
----------------------------------------------------|
-----------------10----------0----------------------|
--------------------12----------10-12---------------|
----------------------------------------------------|
--------------------------10----------9-------------|


----------------------------------------------------|
--------------------1--0--1--------0h-1-------------|
--------------------------------2-------------------|
-----------------2-----------2----------------------|
--------------------------0-------------------------|
----------------------------------------------------|


----------------------------------------------------|
--1-----------------1--0-----------0h-1-------------|
--------------------------------2-------------------|
-----2-----------2----------------------------------|
--------------------------0-------------------------|
----------------------------------------------------|


----------------------------------------------------|
--1--------------------------------1L-1-------------|
-----2-----------2--0--2----------------------------|
--------------------------------1-------------------|
--------------------------3-------------------------|
----------------------------------------------------|


-----------------0--3--8----------------------------|
--0-----------1-----------------------------3--5----|
--------------------------------0--2-----2----------|
-----------------------------0----------------------|
--------------------------------------0-------------|
--------------------------5-------------------------|


--10-------8--------7-------------------------------|
--------------------8--------------9L-9-------------|
--------------------------------7-------------------|
-----------------------------9----------------------|
--------------------------7-------------------------|
----------------------------------------------------|


--10-8--7--8--12----10-8----------|
--0-----0--10-13----10------------|
----------------------------------|
-----7----------------------------|
--------------------------8--0----|
----------------------------------|


--8-----7--------------7----------------------------|
--10----8-----------8-----------8-------------------|
----------------------------------------------------|
-----------------------------9----------------------|
--------------------------7-------------------------|
----------------------------------------------------|


--9-----------------5--3----------------------------|
--10-------------------------------10L10------------|
--9-----------------------------9-------------------|
-----------------------------11---------------------|
--------------------------0-------------------------|
----------------------------------------------------|


--3--2----------------------------|--3----------------------------|
--------------0h-1--1-------------|--------------0-----3--1-------|
-----------2--------2-------------|-----------2--0----------------|
--------0-------------------------|--------0----------------------|
----------------------------------|-------------------------------|
----------------------------------|-----5-------------------------|


----------------------------------------------------|--3-------||
--0L----------0--1----------------------------------|-----0----||
--------------------2--------------0L-0-------------|-----0----||
--------------------------------7-------------------|----------||
-----------------------------6----------------------|----------||
--------------------------5-------------------------|-----5----||

Login or Register to remove this ad.