Ads

Main Theme - Prelude (Final Fantasy VII Remake) Guitar Tab

Submitted: Jun 22, 2021 by guitarsvd (Last updated: Jun 27, 2021)

5
Average: 5 (9 votes)
Download | No audio :(
Game: Final Fantasy VII Remake
Composer(s): Nobuo Uematsu, Masashi Hamauzu
Style: Arrangement, Artificial harmonics, Fingerstyle
Series: Final Fantasy

Click here for a video example.

AutoScroll: Slow | Medium | Fast
                                  Main Theme                                    


                                                          Cecil Chau (GuitarSVD)
Nylon Guitar



     H        Q    Q        H        H           Q    Q    Q    Q     
E||--0--------2----4----|--11--------9--------|-------0----2----4----|
B||--0------------------|---9--------9--------|-----------------0----|
G||---------------------|---9-----------------|-----------------1----|
D||---------------------|---------------------|--2-------------------|
A||---------------------|---------------------|----------------------|
E||--0------------------|---9-----------------|--0-------------------|


  Q    Q    Q    Q       Q    Q    Q    Q        Q     Q    H         
--7----5----0----2----|--0---------2----4----|--11----------9--------|
--0---------3---------|--0---------0----5----|---9----------9--------|
--0---------2---------|--1-------------------|---9-------------------|
------------0---------|----------------------|-----------------------|
--3-------------------|-------2--------------|--------11-------------|
----------------------|--0-------------------|---9-------------------|


  Q    Q    Q    Q       Q    Q    Q    Q       H        H         
-------0----2----4----|--7----5----0----2----|--4-----------------|
------------0----0----|------------1---------|--0-----------------|
-----------------1----|--6-------------------|--------------------|
--2-------------------|--7-------------------|-----------1--------|
----------------------|--0-------------------|--------------------|
--0-------------------|----------------------|--4-----------------|


  Q    Q    Q    Q       E  E  E  E  E  E  E  E     E  E  E   E  E  E  E   E   
-------4----7----4----|--2--------------------2--|--L------------------7--11--|
--2-------------------|--3-----------------3-----|--L---------------7--7---7--|
--2-------------------|-----------2-----2--------|---------------8------------|
--2-------------------|-----0--4-----4-----------|--------7--11---------------|
----------------------|--0-----------------------|-----9----------------------|
--2-------------------|--------------------------|--7------------7-----7------|


  E  E  E  E  E  E  Q        E   E  E  E  E  E  E   E   
--0-----------2-----4----|--11------------9------------|
-----------0--0-----5----|---9---------9--9------------|
--------1--------1-------|----------9-----------9------|
-------------------------|-------------------9-----13--|
-----2-------------------|------11---------------------|
--0----------------------|---9-------------------------|


  E  E  E  E  E  E  Q       E  E  E  E  E  E  E  E     E  E  E  E  E  E  Q     
--------0-----2-----4----|--7-----5-----0-----2-----|--0-----------2-----4----|
--0-----------0-----5----|--0-----0--------3-----1--|--0--------0--0-----5----|
-----------1-----1-------|-----0-----0--------2-----|--------1--------1-------|
--------2----------------|--------------0-----------|-------------------------|
-----2-------------------|--------------------------|-----2-------------------|
--0----------------------|--8-----------------------|--0----------------------|


   E   E  E  E  E  E  E   E     E  E  E  E  E  E  Q     
--11------------9------------|--------0-----2-----4----|
---9---------9--9------------|--0-----------0-----5----|
----------9-----------9------|-----------1-----1-------|
-------------------9-----13--|--------2----------------|
------11---------------------|-----2-------------------|
---9-------------------------|--0----------------------|


  E  E  E  E  Q    Q       E  E  E  E  E  E  Q       E  E  E  E  Q    Q     
--7-----------5---------|--4-----------------2----|------------------------|
--0--------5-------2----|--------------2-----2----|--5--------2--4---------|
--6-----6-----6----2----|--------2--4-----4--2----|--------2-----4---------|
-----7-------------2----|-----2-------------------|-----4------------------|
--0---------------------|-------------------------|--2----------------2----|
------------------------|--2----------------------|------------------------|


  E  E  E  E  E  E  E  E     Q    Q    Q    Q       E  E  E  E  E  E    E  E   
--0-----------------------|-------4----5----4----|--4--2--2--4--5-----<>4-----|
--------------------------|----------------------|--------2--------2-------2--|
--------1-----------------|----------------------|-----2-----2----------2-----|
--------------------2-----|----------------------|--4-------------------------|
-----2-----2--L-----------|----------------------|----------------------------|
--0--------------4-----4--|--0-------------------|----------------------------|


                                           >     >      
    E  E  E  E  E  E  E  E     E  E  E  E  E  E  E  E   
--<>5-----------2-----4--2--|--0--2--4-----------------|
----------2--------2-----2--|--------0--------0-----0--|
-------2-----2--------2-----|-----1-----1--------1-----|
----4-----------------------|--2-----------4-----------|
----------------------------|--------------------------|
----------------------------|--------------------------|


              >                                                                
  E  E  E  E  E  E  Q       E  E  E  E  E  E  E  E     E  E  E  E  E  E  Q     
--L----------------------|--7--5--7--9--0-----------|--0-----------------2----|
--4-----------2----------|--0-----0-----------------|--------2-----5-----2----|
-----1-----1-----1-------|-----6--------4-----4--6--|--------------2-----2----|
--------2-----------2----|-----------------7--------|-----2-----2-----2-------|
-------------------------|--0-----------------------|--0----------------------|
--0----------------------|--------------------------|-------------------------|


  E  E  E  E  E  E  E  E     E  E  E  E  E  E  E  E   
--4-----------0-----4-----|--------0--------4--5--4--|
--0-----------2-----0-----|--4-----0--------5--7--5--|
--------------------------|-----1--------------------|
--------2-----------------|--2--------2--------------|
-----2-----2-----2-----2--|--------------------------|
--0-----------------------|--------------0-----------|


  E  E  E  E  E  E    E  E       E  E  E  E  E  E  E  E   
--4--2--2--4--5-----<>5-----|--<>2-----------2-----4--2--|
--2--2--2--------2-------2--|----------2--------2-----2--|
-----2-----2----------2-----|-------2-----2--------2-----|
--4-----------4-------------|----4-----------------------|
----------------------------|----------------------------|
----------------------------|----------------------------|


  E  E  E  E  E  E  E  E     E  E  E  E  E  E  E  E   
--------4-----------------|--------------------------|
--5--7--------4-----5-----|--------5-----------9-----|
--------6-----6-----6-----|--6--------6--8-----8-----|
-----6-----6-----6-----6--|-----6-----------6-----6--|
--4-----------------------|--4-----------------------|
--------------------------|--------------7-----------|


   E   E   E   E   E   E  E   E     E  E  Q    E  E   E  E   
--12--11--11---9---9-------------|--------5-------9--11--9--|
--14--12--12--10--10---------10--|--------5----7------------|
-------------------9------9------|-----6--------------------|
----------------------11---------|-------------7------------|
---0-----------------------------|--0-----------------------|
---------------------------------|--------------------------|


  E  E  E  E   E  E  E   E     E  E  Q    Q    Q     
--7-------------------------|--2--------------------|
-----7--7--9--10--------10--|--------5----5----4----|
-----------9---------9------|--------2---------2----|
--------7---------7---------|-----4-------4---------|
-----9----------------------|--2----------2----2----|
--7-------------------------|-----------------------|


  T T T T T T T T T T T T T T T T T T T T T T T T Q     
------------------------7------------------------------|
----------------7-----7---7-----7----------------------|
--------8-----8-----8-------8-----8-----8--------------|
------9-----9-----9-----------9-----9-----9------------|
----9-----9---------------------------9-----9----------|
--7-------------------------------------------7-L-L----|


  E  E  E  E  E  E  E  E      E   E  E   E  E  E  E   E   
--0-----------2-----4-----|--11-------------9------------|
--0-----------4-----5-----|---9-------------9------------|
--------1--------4--L--4--|----------9------------9------|
--------------------------|--------------------9-----13--|
-----2-----2--------------|------11-----11---------------|
--0-----------0-----------|---9-------------9------------|


  E  E  E  E  E  E  E  E     E  E  E  E  Q    Q       E  E  E  E  E  E  Q     
--------0-----2-----4-----|--7-----------5---------|--4-----------------2----|
--0-----------0-----5-----|--0--------5-------2----|--------------2-----2----|
--------1--------1-----4--|--6-----6-----6----2----|--------2--4-----4--2----|
--------------------------|-----7-------------2----|-----2-------------------|
-----2-----2--------------|--0---------------------|-------------------------|
--0-----------0-----------|------------------------|--2----------------------|


                                                    NH  
  E  E  E  E  Q    Q       E  E  E  E  E   E  E     E   
------------------------|--------------0---------------|
--5--------2--4---------|---------------------9--<>12--|
--------2-----4---------|-----------4-----11-----------|
-----4------------------|-----4--6---------------------|
--2----------------2----|--7---------------------------|
------------------------|--0---------------------------|


                     NH                   NH    NH                      
   E   E   E   E     E   E   E   E        E     E   E   E  E  E  E  E   
--12--14--16--19--<>24--19--16--14--|--<>12----------------0-----------|
------------------------------------|--------<>12-------------0--------|
------------------------------------|--------------13--11--------1-----|
------------------------------------|-------------------------------4--|
------------------------------------|----------------------------------|
------------------------------------|----------------------------------|


  E  E  E  E  H           W                  
-----------------------|-------------------||
-----------------------|-------------------||
-----------------------|-------------------||
--2-----------2--------|--L----------------||
-----2-----------------|-------------------||
--------4--2--0--------|--L----------------||




Duration Legend
---------------
W - whole
H - half
Q - quarter
E - 8th
S - 16th
T - 32nd
X - 64th
. - note dotted
|-n-|  - n-tuplets


Tablature Legend
----------------
L - tied note
x - dead note
g - grace note
(n) - ghost note
> - accentuded note
NH - natural harmonic
AH - artificial harmonic
TH - tapped harmonic
SH - semi harmonic
PH - pitch harmonic
h - hammer on
p - pull off
b - bend
br - bendRelease
pb - preBend
pbr - preBendRelease
brb - bendReleaseBend
\n/ - tremolo bar dip
\n - tremolo bar dive
-/n - tremolo bar Release up
/n\ - tremolo bar inverted dip
/n - tremolo bar return
-\n - tremolo bar Release down
S - shift slide
s - legato slide
/ -  slide into from below or out of upwards
\ -  slide into from above or out of downwards
~ - vibrato
W - wide vibrato
tr - trill
TP - tremolo picking
T - tapping
S - slap
P - pop
< - fade in
^ - brush up
v - brush down
Login or Register to remove this ad.

1 comment on Main Theme - Prelude

Yaaaaaas

5

Yaaaaaas