Ads

Jessie's Theme (Final Fantasy VII Remake) Guitar Tab

Submitted: Apr 27, 2020 by quinndangle2 (Last updated: Apr 27, 2020)

5
Average: 5 (7 votes)
Download | Listen
Game: Final Fantasy VII Remake
Composer(s): Nobuo Uematsu, Masashi Hamauzu
Style: Arrangement, Fingerstyle
Series: Final Fantasy

AutoScroll: Slow | Medium | Fast
Jessie's Theme
Final Fantasy VII Remake
Composed by Masashi Hamauzu / Mitsuto Suzuki
Arranged by Brent Quinn


   E   E   E   E   Q.    E     E   E   E   E   Q    E   E     E   E   E   E   Q.    E
E|---------2-------0---------|---------2-------0------------|---------2-------0---------|
B|---------3-------2---------|---------3-------2--------0---|---------3-------2---------|
G|*--------2-------0---------|---------2-------0----2-------|---------2-------0---------|
D|*----0-------0---------0---|-----0-------0----------------|-----0-------0---------0---|
A|---------------------------|------------------------------|---------------------------|
E|-3-------------------------|-3----------------------------|-3-------------------------|


   E   E   E   E   Q    E   E     E   E   E   E   E   E   E   E     E   E   E   E   Q    E   E
E|---------2-------0------------|---------5-------0---3---2-------|---------2-------0------------|
B|---------3-------2--------0---|---------3-------2-----------3---|---------3-------2--------0---|
G|---------2-------0----2-------|---------2-------0---------------|-2-------2-------0----2-------|
D|-----0-------0----------------|-----0-------0---------------0---|-----0-------0----------------|
A|------------------------------|---------------------------------|------------------------------|
E|-3----------------------------|-3-------------------------------|-3----------------------------|


   E   E   E   E   Q.    E     Q    E   E   Q    E   E     E   E   E   E   E   E   E   E
E|---------2-------0---------|------2-------0------------|---------5-------0---3---2-------|
B|-2---3-----------2---------|--------------2--------0---|---------3-------2-----------3---|
G|---------2-------0---------|------2-------0----2-------|---------2-------0---------------|
D|-------------4---2-----0---|-2g4------0----------------|-----0-------0---------------0---|
A|---------------------------|---------------------------|---------------------------------|
E|-3-------------------------|-3-------------------------|-3-------------------------------|


   E   E   E   E   Q    E   E     E   E   E   E   Q.    E     Q    E   E   Q    E   E
E|---------2-------0------------|---------2-------0---------|------2-------0------------|
B|---------3-------2--------0---|-2---3-----------2---------|--------------2--------0---|
G|-2-------2-------0----2-------|---------2-------0---------|------2-------0----2-------|
D|-----0-------0----------------|-------------4---2-----0---|-2g4------0----------------|
A|------------------------------|---------------------------|---------------------------|
E|-3----------------------------|-3-------------------------|-3-------------------------|


   Q    Q    Q    Q      Q.    S  S  Q    Q      Q    Q    Q    Q      Q    E   E   Q    E   E
E|------5---------5----|-------5--3--2----0----|------5---------10---|-10---9---7---5----0-------|
B|-3---------3---------|-------------3----2----|-3-------------------|--------------3----2---3---|
G|-2---------2---------|-0-----------0----0----|-2---------7---------|-7------------0----0-------|
D|-0---------4---------|-0-----------2----2----|-0---------7---------|-9------------2----2-------|
A|-----------2---------|-2-----------0---------|-----------9---------|-10-----------0------------|
E|-2-------------------|-0----------------3----|-2---------7---------|-------------------3-------|

                                        |---3---|
   Q    Q    E   E   E   E     E.   T T E   E   E   Q    E   E     Q    Q    H
E|-0----5--------2g3-2-------|-------------------------------0---|-2---------7-----|
B|-3---------3-----------3---|-0------0-2---0---2---3----3-------|------0----0-----|
G|-2----2----2---------------|-0----2---------------2------------|-----------------|
D|-0---------4---------------|-0--------------------0------------|-4---------9-----|
A|-----------2---------------|-----------------------------------|-2---------------|
E|-2-------------------------|-3--------------------2------------|-4---------------|

                                                 |---3---|
   Q    Q.    E   E   E     E   E   E   E   Q    E   E   E     Q    E   E   H       W
E|------5-----3---2---0---|-----------------10---L---10------|-2----0-------0g2---|-L------|
B|-2----5-----------------|-3-----------10--10---L-------10--|-3--------3---3-----|-L------|
G|-4----6-----4---2---0---|-2-------7------------------------|-0------------0-----|-L-----*|
D|-2----------------------|-0---0----------------------------|-2------------2-----|-L-----*|
A|------------------------|-----------------8----------------|--------------0-----|-L------|
E|-3----------------------|-2--------------------------------|--------------------|--------|

Repeat ad infinitum...
Login or Register to remove this ad.

1 comment on Jessie's Theme

awesome

5

awesome