Ads

Hollow (Final Fantasy VII Remake) Guitar Tab

Submitted: Apr 22, 2020 by guitarsvd (Last updated: Apr 26, 2020)

5
Average: 5 (2 votes)
Download | No audio :(
Game: Final Fantasy VII Remake
Composer(s): Nobuo Uematsu, Masashi Hamauzu
Style: Arrangement, Fingerstyle, Natural harmonics, Percussion, Tremolo
Series: Final Fantasy

Click here for a video example.

AutoScroll: Slow | Medium | Fast
Title: Hollow
SubTitle: Final Fantasy VII Remake Theme
Artist: Cecil Chau (GuitarSVD)
Music: Nobuo Uematsu
Tempo = 57
Nylon Guitar

Legend
L - tied note
x - dead note
h - hammer on/pull off
b - bend
s - slide
~ - vibrato
g - ghost note
> - accentuated note
t - trill
M - palm mute
. - staccato
P - popping (bass)
S - slapping (bass)
+ - tapping
W - wide vibrato
< - fade in
w - whammy bar
= - tremolo picking
v - brush up
^ - brush down
V - pick stroke up
n - pick stroke down

                                                        
E |--2L----------2--0--2--3----------------------------|
B |-----------------------------------0L-0-------------|
G |--------------------------------0-------------------|
D |-----------------------------2----------------------|
A |--------------------------3-------------------------|
E |----------------------------------------------------|

                                                                             
--2-----0-------------------------------------------------------------------|
-----------0L-0--------------------------------------------------0----------|
-----------------------------------------------------------0L-0-----12------|
--------------------------------------------------------4-------------------|
-----------------------------------------------------2----------------------|
--------------------------------------------------0-------------------------|

                                                     
--2L----------2--0--2--3----------------------------|
-----------------------------------0L-0-------------|
--------------------------------0-------------------|
-----------------------------2----------------------|
--------------------------3-------------------------|
----------------------------------------------------|

                                                                             
--5-----3--2L-2--0--3L----3-------------------------------------------------|
-----------------------------------------------------------------0----------|
-----------------------------------------------------------0L-0-----12------|
--------------------------------------------------------4-------------------|
-----------------------------------------------------2----------------------|
--------------------------------------------------0-------------------------|

                                                     
--2L----------2--0--2--3----------------------------|
-----------------------------------0L-0-------------|
--------------------------------0-------------------|
-----------------------------2----------------------|
--------------------------3-------------------------|
----------------------------------------------------|

                                                                             
--2-----0-------------------------------------------------------------------|
-----------0L-0--------------------------------------------------0----------|
-----------------------------------------------------------0L-0-----12------|
--------------------------------------------------------4-------------------|
-----------------------------------------------------2----------------------|
--------------------------------------------------0-------------------------|

                                                     
--2L----------2--0--2--3----------------------------|
-----------------------------------0L-0-------------|
--------------------------------0-------------------|
-----------------------------2----------------------|
--------------------------3-------------------------|
----------------------------------------------------|

                                                                             
--5-----7-----------------------------------7-------------------------------|
--------------------------------------8-----------------0-------------------|
-----------9L-9-----------------9-------------------------------------------|
----------------------------------------------------------------------------|
-----------------------------------------------------------7L-7-------------|
--------------------------------------------------0-------------------------|

                                                                             
--5L----------------------5-----------3-----2--3L---------------------------|
----------------------------------------------------------------------------|
--------------------------------------------------------6-------------------|
-----------------------------------------------------7-----7L-7-------------|
--------------------------------------------------0-------------------------|
----------------------------------------------------------------------------|

                                                                             
--3--0L-0-----------------------0-----3-----7-------------------------------|
--------------------------------------------------------0-------------------|
-----------------------------------------------------0----------------------|
----------------------------------------------------------------------------|
-----------------------------------------------------------7L-7-------------|
--------------------------------------------------0-------------------------|

                                                     
--9L----------9--10-9--5----------------------------|
----------------------------------------------------|
--------------------------------6-------------------|
-----------------------------7-----7L-7-------------|
--------------------------0-------------------------|
----------------------------------------------------|

                                                     
--7L----------7--------7----------------------------|
--------------------8-----------0-------------------|
-----------------9-----------0----------------------|
----------------------------------------------------|
-----------------------------------7L-7-------------|
--------------------------8-------------------------|

                                                                             
--5L----------------------5-----------3-----2--3L---------------------------|
----------------------------------------------------------------------------|
--------------------------------------------------------6-------------------|
-----------------------------------------------------7-----7L-7-------------|
--------------------------------------------------0-------------------------|
----------------------------------------------------------------------------|

                                                                             
--3--0L-0-----------------------0-----2-----3-------------------------------|
--------------------------------------------------------0-------------------|
-----------------------------------------------------0----------------------|
----------------------------------------------------------------------------|
-----------------------------------------------------------7L-7-------------|
--------------------------------------------------0-------------------------|

                                           =        =
--2L----------2--7--2--------------2L-2-------------|
-----------------------3--------3-------------------|
-----------------------------2----------------------|
--------------------------0-------------------------|
----------------------------------------------------|
----------------------------------------------------|

       =        =       =        =       =
--0--2--0L----0-------------------------------------------------------------|
-----------------------------------------------------------1L-1-------------|
--------------------------------------------------------0--------0----------|
-----------------------------------------------------2--------------2-------|
--------------------------------------------------3-------------------------|
----------------------------------------------------------------------------|


--5--3--2--3--5-----------------------5-----7-------------------------------|
-----------------------------------------------------------2L-2-------------|
--------------------------------------------------------2-------------------|
-----------------------------------------------------2----------------------|
--------------------------------------------------0-------------------------|
----------------------------------------------------------------------------|


--3-----0--0L-0-----------------0-----2-----3-------------------------------|
----------------------------------------------------------------------------|
-----------------------------------------------------------0L-0-------------|
--------------------------------------------------------4-------------------|
-----------------------------------------------------2----------------------|
--------------------------------------------------0-------------------------|


--2L----------2-----0--2-----------2L-2-------------|
-----------------3--------------3-------------------|
-----------------------------2----------------------|
--------------------------0-------------------------|
----------------------------------------------------|
----------------------------------------------------|


--0----------------------------|
-----------0h-1L-1-------------|
--------0----------------------|
-------------------------------|
-----3-------------------------|
-------------------------------|


--5--3--2--3--5-----------------------5-----7-------------------------------|
-----------------------------------------------------------2L-2-------------|
--------------------------------------------------------2-------------------|
-----------------------------------------------------2----------------------|
--------------------------------------------------0-------------------------|
----------------------------------------------------------------------------|


--3-----0--0L-0-----------------0-----2-----3-------------------------------|
----------------------------------------------------------------------------|
-----------------------------------------------------------0L-0-------------|
--------------------------------------------------------4-------------------|
-----------------------------------------------------2----------------------|
--------------------------------------------------0-------------------------|


--5L----------5-----5--7----------------------------|
-----------------8-----------------5L-5-------------|
--------------------------------6-------------------|
-----------------------------7----------------------|
--------------------------0-------------------------|
----------------------------------------------------|


--8L----8--0----------------------------|
--------------------0-------------------|
-----------------0----------------------|
----------------------------------------|
-----------------------7L-7-------------|
--------------8-------------------------|


--12-------15---------------------------|
-----------0--------0--------12---------|
-----------------0--------12-------0----|
----------------------------------------|
-----------------------7----------------|
--------------0-------------------------|


--12-------0----------------------------|
-----------------------10-------0-------|
--------------------9-----9--------0----|
-----------------11----------11---------|
--------------0-------------------------|
----------------------------------------|


--12-------17---------------------------|--12---------------------------|
--------------------0--------0--0-------|--------------10---------------|
-----------------0-----------------0----|-----------9-----9L-9----------|
-----------------------12---------------|--------11---------------------|
--------------------------7-------------|-----0-------------------------|
--------------0-------------------------|-------------------------------|


--2L----------2--0--2--3----------------------------------------------------|
--------------------------0--------0--x--0----------------------------------|
--------------------------0--------0--x--0----------------------------------|
----------------------------------------------------------------------------|
--------------------------3-----------------3L----3-------------------------|
----------------------------------------------------------------------------|


--2-----0-----------------------------------------------------------------------
-----------0--x-----------------------------------0--------------0--------------
--------------------------------------------------0--------0--x--0--------------
--------------------------------------------------------------------------------
--------------------------------------------------------------------------------
--------------------------------------------------0-----------------0L----0-----


--------------------|
------12------------|
------12------------|
--------------------|
--------------------|
--------------------|


--2L----------2--0--2--3----------------------------------------------------|
--------------------------0--------0--x--0----------------------------------|
--------------------------0--------0--x--0----------------------------------|
----------------------------------------------------------------------------|
--------------------------3-----------------3L----3-------------------------|
----------------------------------------------------------------------------|


--5-----3--2L-2--0--3L----3-----------------------------------------------------
-----------0--x--x--------------------------------0L-------0L-0L-0--------------
--------------------------------------------------0--------0--x--0--------------
--------------------------------------------------------------------------------
--------------------------------------------------------------------------------
--------------------------------------------------0-----------------0L----0-----


--------------------|
------12------------|
0-----12------------|
--------------------|
--------------------|
--------------------|


--2L----------2--0--2--3----------------------------------------------------|
--------------------------0--------0--x--0----------------------------------|
--------------------------0--------0--x--0----------------------------------|
----------------------------------------------------------------------------|
--------------------------3-----------------3L----3-------------------------|
----------------------------------------------------------------------------|


--2-----0-----------------------------------------------------------------------
-----------0L-0-----------------------------------0--------------0--------------
--------------------------------------------------0--------0--x--0--------------
--------------------------------------------------------------------------------
--------------------------------------------------------------------------------
--------------------------------------------------0-----------------0L----0-----


--------------------|
------12------------|
------12------------|
--------------------|
--------------------|
--------------------|


--2L----------2--0--2--3----------------------------------------------------|
--------------------------0--------0--x--0----------------------------------|
--------------------------0--------0--x--0----------------------------------|
----------------------------------------------------------------------------|
--------------------------3-----------------3L----3-------------------------|
----------------------------------------------------------------------------|


--5-----7-----------------------------------7----------|
--------------------------------------8-----------0----|
-----------9L-9-----------------9-----------------0----|
-------------------------------------------------------|
-------------------------------------------------------|
--------------------------------------------------0----|


--5L----------------------5-----------3-----2--3L-------------------------------
--------------------------------------------------2--------2--x--2--------------
--------------------------------------------------2--------2--x--2--------------
--------------------------------------------------------------------------------
--------------------------------------------------0-----------------0L----0-----
--------------------------------------------------------------------------------


--------------------|
--------------------|
--------------------|
--------------------|
--------------------|
--------------------|


--3--0L-0-----------------------0-----3-----7-----------------------------------
--------------------------------------------------0--------0--x--0--------------
--------------------------------------------------0--------0--x--0--------------
--------------------------------------------------------------------------------
--------------------------------------------------------------------------------
--------------------------------------------------0-----------------0L----0-----


--------------------|
--------------------|
--------------------|
--------------------|
--------------------|
--------------------|


--9L----------9--10-9--5----------------------------------------------------|
--------------------------10-------10-x--10---------------------------------|
--------------------------9--------9--x--9----------------------------------|
----------------------------------------------------------------------------|
--------------------------0-----------------0L----0-------------------------|
----------------------------------------------------------------------------|


--7L----------7--------7----------------------------------------------------|
--------------------8-----0--------0--x--0----------------------------------|
-----------------9--------0--------0--x--0----------------------------------|
----------------------------------------------------------------------------|
----------------------------------------------------------------------------|
--------------------------8-----------------8L----8-------------------------|


--5L----------------------5-----------3-----2--3L-------------------------------
--------------------------------------------------2--------2--x--2--------------
--------------------------------------------------2--------2--x--2--------------
--------------------------------------------------------------------------------
--------------------------------------------------0-----------------0L----0-----
--------------------------------------------------------------------------------


--------------------|
--------------------|
--------------------|
--------------------|
--------------------|
--------------------|


--3--0L-0-----------------------0-----2-----3-----------------------------------
--------------------------------------------------0--------0--x--0--------------
--------------------------------------------------0--------0--x--0--------------
--------------------------------------------------------------------------------
--------------------------------------------------------------------------------
--------------------------------------------------0-----------------0L----0-----


--------------------|
--------------------|
--------------------|
--------------------|
--------------------|
--------------------|


--2L----------2--7--2-------------------------------------------------------|
-----------------------3--3--------3--x--3----------------------------------|
--------------------------2--------2--x--2----------------------------------|
--------------------------0-----------------0L----0-------------------------|
----------------------------------------------------------------------------|
----------------------------------------------------------------------------|


--0--2--0L----0-----------------------------------------------------------------
--------------------------------------------------0--------0--x--1--------------
--------------------------------------------------0--------0--x--0--------------
--------------------------------------------------------------------------------
--------------------------------------------------3-----------------3L----3-----
--------------------------------------------------------------------------------


--------------------|
------1-------------|
0-----0-------------|
--------------------|
--------------------|
--------------------|


--5--3--2--3-----5L-5-----------------5-----7-----------------------------------
--------------------------------------------------2--------2--x--2--------------
--------------------------------------------------2--------2--x--2--------------
--------------------------------------------------------------------------------
--------------------------------------------------0-----------------0L----0-----
--------------------------------------------------------------------------------


--------------------|
--------------------|
--------------------|
--------------------|
--------------------|
--------------------|


--3-----0--0L-0-----------------0-----2-----3-----------------------------------
--------------------------------------------------0--------0--x--0--------------
--------------------------------------------------0--------0--x--0--------------
--------------------------------------------------------------------------------
--------------------------------------------------------------------------------
--------------------------------------------------0-----------------0L----0-----


--------------------|
--------------------|
--------------------|
--------------------|
--------------------|
--------------------|


--2L----------2-----0--2----------------------------------------------------|
-----------------3--------3--------3--x--3----------------------------------|
--------------------------2--------2--x--2----------------------------------|
--------------------------0-----------------0L----0-------------------------|
----------------------------------------------------------------------------|
----------------------------------------------------------------------------|


--0----------------------------------------------------|
-----0--------0--x--0----------------------------------|
-----0--------0--x--0----------------------------------|
-------------------------------------------------------|
-----3-----------------3L----3-------------------------|
-------------------------------------------------------|


--5--3--2--3-----5L-5-----------------5-----7-----------------------------------
--------------------------------------------------2--------2--x--2--------------
--------------------------------------------------2--------2--x--2--------------
--------------------------------------------------------------------------------
--------------------------------------------------0-----------------0L----0-----
--------------------------------------------------------------------------------


--------------------|
--------------------|
--------------------|
--------------------|
--------------------|
--------------------|


--3-----0--0L-0-----------------0-----2-----3-----------------------------------
--------------------------------------------------0--------0--x--0--------------
--------------------------------------------------0--------0--x--0--------------
--------------------------------------------------------------------------------
--------------------------------------------------------------------------------
--------------------------------------------------0-----------------0L----0-----


--------------------|
--------------------|
--------------------|
--------------------|
--------------------|
--------------------|


--5L----------5--3--5--7----------------------------------------------------|
--------------------------2--------2--x--2----------------------------------|
--------------------------2--------2--x--2----------------------------------|
----------------------------------------------------------------------------|
--------------------------0-----------------0L----0-------------------------|
----------------------------------------------------------------------------|


--8L----8--0----------------------------------------------------|
--------------8--------8--x--8----------------------------------|
--------------9--------9--x--9----------------------------------|
----------------------------------------------------------------|
----------------------------------------------------------------|
--------------8-----------------8L----8-------------------------|


--12-------15---------------------------------------------------|
--------------0--------0--x--0----------------------------------|
--------------0--------0--x--0----------------------------------|
----------------------------------------------------------------|
----------------------------------------------------------------|
--------------0-----------------0L----0-------------------------|


--12-------0----------------------------------------------------|
--------------10-------10-x--10---------------------------------|
--------------9--------9--x--9----------------------------------|
----------------------------------------------------------------|
--------------0-----------------0L----0-------------------------|
----------------------------------------------------------------|


--12-------17---------------------------------------------------|
--------------0--------0--x--0----------------------------------|
--------------0--------0--x--0----------------------------------|
----------------------------------------------------------------|
----------------------------------------------------------------|
--------------0-----------------0L----0-------------------------|


--12---------------------------------------------------|
-----10-------10-x--10---------------------------------|
-----9--------9--x--9----------------------------------|
-------------------------------------------------------|
-----0-----------------0L----0-------------------------|
-------------------------------------------------------|


--2L----------2--0--2--3----------------------------|
-----------------------------------0L-0-------------|
--------------------------------0-------------------|
-----------------------------2----------------------|
--------------------------3-------------------------|
----------------------------------------------------|


--2-----0-------------------------------------------------------------------|
-----------0L-0--------------------------------------------------0----------|
-----------------------------------------------------------0L-0-----12------|
--------------------------------------------------------4-------------------|
-----------------------------------------------------2----------------------|
--------------------------------------------------0-------------------------|


--2L----------2--0--2--3----------------------------|
-----------------------------------0L-0-------------|
--------------------------------0-------------------|
-----------------------------2----------------------|
--------------------------3-------------------------|
----------------------------------------------------|


--5-----7-------------------------------------------------------------------||
--------------------------------------------------------0-------------------||
-----------9L-9-------------------------------------------------------------||
----------------------------------------------------------------------------||
-----------------------------------------------------------7L-7-------------||
--------------------------------------------------0-------------------------||

Login or Register to remove this ad.