Ads

For The Reuinion (Final Fantasy VII Advent Children) Guitar Tab

Submitted: Aug 16, 2019 by corntastic (Last updated: Sep 04, 2019)

5
Average: 5 (1 vote)
Download | No audio :(
Game: Final Fantasy VII Advent Children
Composer(s): Nobuo Uematsu
Style: Fingerstyle
Series: Final Fantasy

AutoScroll: Slow | Medium | Fast
Title: For The Reuinion
Artist: Nobuo Uematsu, Takuma Sato
Album: Final Fantasy VII: Advent Children
Tabber: corntastic


Track 1: Track 1

E|-1-------------------1-------------------|-1-------------------1---------------3-----|
B|--------2--2-----4----------2--2-----4---|--------2--2-----4----------2--2--------4--|
G|-1---3--------3--0-------3-----0--3------|-1---3--------3--0---1---3--------3--------|
D|-----1--3----------------------------1---|-----1--3----------------------------------|
A|-1------------4------1-------------------|-1------------4------1---------------------|
E|-----------------------------------------|-------------------------------------------|


E|-1-------------------1-------------------|-1-------------------1---------------3-----|
B|--------2--2----4----------2--2-----4---|--------2--2-----4----------2--2--------4--|
G|-1---3--------3--0-------3-----0--3------|-1---3--------3--0---1---3--------3--------|
D|-----1--3----------------------------1---|-----1--3----------------------------------|
A|-1------------4------1-------------------|-1------------4------1---------------------|
E|-----------------------------------------|-------------------------------------------|


E|-1-------------------1-------------------|-1-------------------1---------------3-----|
B|--------2--2-----4----------2--2-----4---|--------2--2-----4----------2--2--------4--|
G|-1---3--------3--0-------3-----0--3------|-1---3--------3--0---1---3--------3--------|
D|-----1--3----------------------------1---|-----1--3----------------------------------|
A|-1------------4------1-------------------|-1------------4------1---------------------|
E|-----------------------------------------|-------------------------------------------|


E|-1-------------------1-------------------|-1-------------------1---------------3-----|
B|--------2--2-----4----------2--2-----4---|--------2--2-----4----------2--2--------4--|
G|-1---3--------3--0-------3-----0--3------|-1---3--------3--0---1---3--------3--------|
D|-----1--3----------------------------1---|-----1--3----------------------------------|
A|-1------------4------1-------------------|-1------------4------1---------------------|
E|-----------------------------------------|-------------------------------------------|


E|-1-------------------1-------------------|-1-------------------1---------------3-----|
B|--------2--2-----4----------2--2-----4---|--------2--2-----4----------2--2--------4--|
G|-1---3--------3--0-------3-----0--3------|-1---3--------3--0---1---3--------3--------|
D|-----1--3----------------------------1---|-----1--3----------------------------------|
A|-1------------4------1-------------------|-1------------4------1---------------------|
E|-----------------------------------------|-------------------------------------------|


E|-1-------------------1-------------------|-1-------------------1---------------3-----|
B|--------2--2-----4----------2--2-----4---|--------2--2-----4----------2--2--------4--|
G|-3---3--------3--0-------3-----0--3------|-1---3--------3--0---1---3--------3--------|
D|-----1--3----------------------------1---|-----1--3----------------------------------|
A|-4------------4------1-------------------|-1------------4------1---------------------|
E|-4---------------------------------------|-------------------------------------------|


E|-1-------------------1-------------------|-1-------------------1---------------3-----|
B|--------2--2-----4----------2--2-----4---|--------2--2-----4----------2--2--------4--|
G|-3---3--------3--0-------3-----0--3------|-1---3--------3--0---1---3--------3--------|
D|-1---1--3----------------------------1---|-----1--3----------------------------------|
A|--------------4------1-------------------|-1------------4------1---------------------|
E|-4---------------------------------------|-------------------------------------------|


E|-1-------------------1-------------------|-1-------------------1---------------3-----|
B|--------2--2-----4----------2--2-----4---|--------2--2-----4----------2--2--------4--|
G|-3---3--------3--0-------3-----0--3------|-1---3--------3--0---1---3--------3--------|
D|-3---1--3----------------------------1---|-----1--3----------------------------------|
A|--------------4------1-------------------|-1------------4------1---------------------|
E|-4---------------------------------------|-------------------------------------------|


E|-1-------------------1-------------------|-1-------------------1---------------3-----|
B|--------2--2-----4----------2--2-----4---|--------2--2-----4----------2--2--------4--|
G|-3---3--------3--0-------3-----0--3------|-1---3--------3--0---1---3--------3--------|
D|-----1--3----------------------------1---|-----1--3----------------------------------|
A|--------------4------1-------------------|-1------------4------1---------------------|
E|-4---------------------------------------|-------------------------------------------|


E|-1-------------------1-------------------|-1-------------------1---------------3-----|
B|--------2--2-----4----------2--2-----4---|--------2--2-----4----------2--2--------4--|
G|-3---3--------3--0-------3-----0--3------|-1---3--------3--0---1---3--------3--------|
D|-----1--3----------------------------1---|-----1--3----------------------------------|
A|-4------------4------1-------------------|-1------------4------1---------------------|
E|-4---------------------------------------|-------------------------------------------|


E|-1-------------------1-------------------|-1-------------------1---------------3-----|
B|--------2--2-----4----------2--2-----4---|--------2--2-----4----------2--2--------4--|
G|-3---3--------3--0-------3-----0--3------|-1---3--------3--0---1---3--------3--------|
D|-1---1--3----------------------------1---|-----1--3----------------------------------|
A|--------------4------1-------------------|-1------------4------1---------------------|
E|-4---------------------------------------|-------------------------------------------|


E|-1-------------------1-------------------|-1-------------------1---------------3-----|
B|--------2--2-----4----------2--2-----4---|--------2--2-----4----------2--2--------4--|
G|-3---3--------3--0-------3-----0--3------|-1---3--------3--0---1---3--------3--------|
D|-1---1--3----------------------------1---|-----1--3----------------------------------|
A|--------------4------1-------------------|-1------------4------1---------------------|
E|-4---------------------------------------|-------------------------------------------|


E|-1-----------|--------|
B|-2-----------|--------|
G|-3-----3-----|--------|
D|-------1-----|--------|
A|-1-----1-----|--------|
E|-------------|--------|



Login or Register to remove this ad.