Wedding Waltz - Duel (Final Fantasy VI) Guitar Tab

Submitted: Aug 29, 2009 by Asa

3
Average: 3 (1 vote)
Download | Listen
Game: Final Fantasy VI
Composer(s): Nobuo Uematsu
Style: Transcription
Series: Final Fantasy

AutoScroll: Slow | Medium | Fast
The Wedding
Final Fantasy VI
Nobuo Uematsu
FFVI OSV Disc 2 - Track 9

Tabbed by Aj Franks


Waltz
e|-----|-----|-----|-----|
B|-----|-----|-----|-----|
G|-----|-----|-----|-----|
D|-----|-----|-----|-----|
A|-----|-----|-----|-----|
E|-----|-----|-----|-----|


e||---------------------------4-5--|--------------------------------|--7--6--5---|
B||--5--4------5-4------4-5-7------|--7--6----5-7-4------4-5-7-8-9--|------------|
G||*-------4-6------4-6------------|--------6--------4-6------------|------------|
D||*-------------------------------|--------------------------------|------------|
A||--------------------------------|--------------------------------|------------|
E||--------------------------------|--------------------------------|------------|


e|--------------------------4-7-9--|--5-4-5-7-5----4-----|--------4------------|
B|---5--4------5-4------4-5--------|------------6-----7--|--7-6-7---7----5--4--|
G|---------4-6------4-6------------|---------------------|------------6--------|
D|---------------------------------|---------------------|---------------------|
A|---------------------------------|---------------------|---------------------|
E|---------------------------------|---------------------|---------------------|

       .  .  .
e|-----7--5--4-----------|--(7--6--5)---||
B|------------------4-5--|--------------||
G|--4-----------4-6------|-------------*||
D|-----------------------|-------------*||
A|-----------------------|--------------||
E|-----------------------|--------------||



Attack
e|--.--.--.--|
B|--5--7--8--|
G|-----------|
D|-----------|
A|-----------|
E|-----------|


e|------------------------------------------0----|
B|--------------------------------------------0--|
G|------------------------------0-----4----------|
D|--------------------------2-----1-2---4-5------|
A|----------3-2-0-----2-------2------------------|
E|--0-2-3-0-------3-0---2-3----------------------|


e|--3----3--2--0-----|--5----5--3--2--0--|--7-6-8-7----------------------------|
B|----------------4--|-------------------|----------7-6-8-7--------------------|
G|-------------------|-------------------|-------------------------------------|
D|-------------------|-------------------|------------------9-8-10-9-----------|
A|-------------------|-------------------|---------------------------9-8-10-9--|
E|-------------------|-------------------|-------------------------------------|


e|---------------------3-3-5-5-7---L---|---------------------5-5-7-7-8---L---|
B|-------------------------------------|-------------------------------------|
G|-----------4---L---------------------|-------4---5---L---------------------|
D|--5----7-----------------------------|--7----------------------------------|
A|-------------------------------------|-------------------------------------|
E|-------------------------------------|-------------------------------------|

                                                                              . . . .
e|------------------------2--3--2--|------------------------2--3--2--0--7--|--7-7-7-7--|
B|--0--1--0----4--5--4-------------|--0--1--0----4--5--4-------------------|-----------|
G|---------------------------------|---------------------------------------|-----------|
D|---------------------------------|---------------------------------------|-----------|
A|---------------------------------|---------------------------------------|-----------|
E|---------------------------------|---------------------------------------|-----------|


Choir
e|-------------|----------------------------------|-----------------------|
B|-------------|--6--5--4--3-1-0-3--1-0---1--0----|-----------------------|
G|-------------|------------------------2---------|--------4----5-4-2-/4--|
D|--------2----|----------------------------------|--2-2-2----------------|
A|--2--6--0----|----------------------------------|-----------------------|
E|--0--4-------|----------------------------------|-----------------------|


e|--------------------------------|----------------------------------------|
B|--------------------------------|----------------------------------------|
G|-----------.-----.-----.--------|----------------------------------------|
D|--2-2-2-3--2--0--2--3--2--0--2--|------0--------0-2--0---0-2-3--2-1-2----|
A|--------------------------------|--2-3----3-2-3--------3-----------------|
E|--------------------------------|----------------------------------------|


e|-------------|
B|-------------|
G|--------4----|
D|--2-2-2------|
A|-------------|
E|-------------|



The Duel
e|------------------------------------------0----|
B|--------------------------------------------0--|
G|------------------------------0-----4----------|
D|--------------------------2-----1-2---4-5------|
A|----------3-2-0-----2-------2------------------|
E|--0-2-3-0-------3-0---2-3----------------------|


e|--3----3--2--0-----|--5----5--3--2--0--|--7-6-8-7----------------------------|
B|----------------4--|-------------------|----------7-6-8-7--------------------|
G|-------------------|-------------------|-------------------------------------|
D|-------------------|-------------------|------------------9-8-10-9-----------|
A|-------------------|-------------------|---------------------------9-8-10-9--|
E|-------------------|-------------------|-------------------------------------|


e|---------------------3-3-5-5-7---L---|---------------------5-5-7-7-8---L---|
B|-------------------------------------|-------------------------------------|
G|-------2---4---L---------------------|-------4---5---L---------------------|
D|--5----------------------------------|--7----------------------------------|
A|-------------------------------------|-------------------------------------|
E|-------------------------------------|-------------------------------------|


e||------------------------2--3--2--|------------------------2--3--2--|
B||--0--1--0----4--5--4-------------|--0--1--0----4--5--4-------------|
G||*--------------------------------|---------------------------------|
D||*--------------------------------|---------------------------------|
A||---------------------------------|---------------------------------|
E||---------------------------------|---------------------------------|


e|-------------0--2--0----3--5--3--|-------------0--2--0----3--5--3--|
B|--0--1--0------------------------|--0--1--0------------------------|
G|---------------------------------|---------------------------------|
D|---------------------------------|---------------------------------|
A|---------------------------------|---------------------------------|
E|---------------------------------|---------------------------------|



e|--5-7-8-5------5-------------------|--0-2-3-0------0----------------------|
B|-----------7-8---7--4-5-7-4----4---|-----------1-3---1----0-1-------------|
G|----------------------------4------|--------------------2-----2----0-2----|
D|-----------------------------------|-----------------------------3-----3--|
A|-----------------------------------|--------------------------------------|
E|-----------------------------------|--------------------------------------|


e|------------------------------------|---------------------|
B|------------------------------------|---------------------|
G|------------------------------------|--0--2--0--L---2--4--|
D|--1---L---2--4--2--L---4--5--4--L---|---------------------|
A|------------------------------------|---------------------|
E|------------------------------------|---------------------|


e|----------------------------------0--0--------0-2--2-0----|--3--2--1--2--||
B|------2--2--------2-3--3-2----2-3------3-2--3----------3--|--------------||
G|--3-4------4-3--4----------4------------------------------|-------------*||
D|----------------------------------------------------------|-------------*||
A|----------------------------------------------------------|--------------||
E|----------------------------------------------------------|--------------||


*screach* *crash*
Login or Register to remove this ad.