Ads

Under Martial Law (Final Fantasy VI) Guitar Tab

Submitted: May 28, 2012 by iamHoustonian

5
Average: 5 (1 vote)
Download | Listen
Game: Final Fantasy VI
Composer(s): Nobuo Uematsu
Style: 2 or more instruments, Alternate picking, Transcription
Series: Final Fantasy

AutoScroll: Slow | Medium | Fast
Under Martial Law
Final Fantasy VI
Composed By: Nobuo Uematsu
Tabbed By: iamHoustonian
Date Tabbed: 5/28/2012



Guitar I

Intro
e--------------------
B--------------------
G-------12----------- x4
D----12--------------
A-10-----------------
E--------------------


Part I
e--------------------
B--------------------
G-------9------------ x8
D----9---------------
A-7------------------
E--------------------


Part II
e--------------------
B--------------------
G-------------------- x8
D-------10-----------
A----10--------------
E-8------------------

    Repeat Parts I & II



Guitar II

Intro
e-------------------------------
B-8---10-13--11----10-15--------
G-7---9--12--10----9--12--------
D-------------------------------
A-------------------------------
E-------------------------------

e-------------------------------
B-8---10-13--11----10-11--8-----
G-7---9--12--10----9--10--7-----
D-------------------------------
A-------------------------------
E-------------------------------


Part I
e-------------------------------
B-5---7--10-8----6--5-----------
G-4---6--9--7----5--4----------- 
D------------------------------- X 4
A-------------------------------
E-------------------------------


Part II
e-------------------------------
B-------------------------------
G-5---7--10--8----6--5---------- 
D-5---7--10--8----6--5---------- X 4
A-------------------------------
E-------------------------------

    Repeat Parts I & II



Guitar III

Part I
e----------------------------------------------\
B---------10-12----10-12-10-------------------- \
G-9-11-12-------------------12-10-12-9---------  \
D-----------------------------------------9----   \
A----------------------------------------------    \
E----------------------------------------------     \
                                                      X 2
e----------------------------------------------     /
B-------------------------------10-------------    /
G---------------9---------10-12----12-10-12-9~-   /
D-9-10-12--10-9------9-------------------------  /
A---------------------------------------------- /
E----------------------------------------------/


Part II
e----------------------------------------------\
B-------6-8----6-8-6--------------------------- \
G-5-7-8--------------8-6-8-5-------------------  \
D-------------------------------5--------------   \
A----------------------------------------------    \
E----------------------------------------------     \
                                                      X 2
e----------------------------------------------     /
B--------------------------6-------------------    /
G------------5---------6-8---8-6-8-5~----------   /
D-5-6-8--6-5------5----------------------------  /
A---------------------------------------------- /
E----------------------------------------------/

    Repeat Parts I & II
Login or Register to remove this ad.