Login or Register to remove this ad.

Terra's Theme (Final Fantasy VI) Guitar Tab

Submitted: Mar 19, 2017 by JellySword (Last updated: Mar 19, 2017)

5
Average: 5 (4 votes)
Download | Listen
Game: Final Fantasy VI
Composer(s): Nobuo Uematsu
Style: Arrangement, Artificial harmonics, Fingerstyle, Natural harmonics
Series: Final Fantasy

AutoScroll: Slow | Medium | Fast
Terra’s Theme (from FFVI Piano Collections)
Composed by Nobuo Uematsu
Arranged by JellySword
Special thanks to thedstring for helping out

BPM = 65
Capo on 3rd

       Q    Q    Q    Q         Q    Q    Q    Q         Q    Q    Q    Q      
E |------------------------|------------------------|------------------------|
B |----0----0----0----0----|------------------------|----0----0----0----0----|
G |----0----0----0----0----|----2----2----2----2----|----0----0----0----0----|
D |----4----4----2----2----|----2----2----0----0----|----4----4----2----2----|
A |------------------------|------------------------|------------------------|
E |------------------------|----2-------------------|------------------------|

  Q    Q    Q    E  S S    S S E  Q    Q    E  S S    Q    Q    Q    E  S S          
--------------------0-2-|--3-7-3---------------2-0-|--2-----------------0-2-|
------------------------|--0------0----0----0------|------------------------|
--2----2----2----2------|--0------0----0----0------|--2----4----2----2------|
--2----2----0----0------|--4------4----2----2------|--2----2----0----0------|
------------------------|--------------------------|------------------------|
--2---------------------|--------------------------|--2---------------------|

  S S E  Q      Q      E  S S    Q    Q    Q    E  S S    S S  E  Q    Q    E  S S
--3-7-3-------------------2-0-|-------7------------3-5-|--7-10-7---------------5-3-|
--0------0------0------0------|--7---------------------|---------------0----0------|
--0------0------0------0------|------------2----2------|--7-------7----7----7------|
--4------4------2------2------|--7----7----0----0------|--7-------7----5----5------|
------------------------------|--7----7----------------|---------------------------|
------------------------------|------------------------|---------------------------|

  Q    Q    Q    E  S S    Q    Q    Q    E  S S    Q    Q    Q    Q                                        
--5-----------------3-2-|--0-----------------3-2-|--0-------------------|
-------3----------------|--3---------------------|----------------------|
--2----2----2----2------|--0----0----0----0------|--0----0----0----0----|
--0----0----0----0------|--2----2----2----2------|--4----4----2----2----|
------------------------|------------3----3------|--2----2----2----2----|
------------------------|------------------------|----------------------|

  S S S S S S S S S S S S S S S S S S    Q    E  S S Q    Q                                    
------0-2-5-3-2-3-8-7-6-7-14-12-11-12-|--12-----10-9-10--------|
--0-2-------------0--------0----------|------------------------|
--0-------0-------0--------0----------|------------------------|
--4-------4---------------------------|------------------------|
------------------7-------------------|--7----7------9----9----|
--------------------------------------|--8----8------10---10---|

  Q    E  S S Q    Q       Q    E  S S S S S S S S S S                                   
--10------8-7-----------|--8-------7-6-7---------------|
------------------------|--------------0-7-4-0---------|
--------------5---------|--------------8---------------|
--5----5------5----5----|--4----4--------------4-1-2-4-|
--5----5-----------7----|------------------------------|
--------------8----8----|--7----7----------------------|

Segno
  S S S S S S S S S S S S S S S S    S S S S S S S S S S S S S S S S                                   
----------------------------------|----------------------------------|
----0-----0---------------0-------|----------0-----------------------|
--0---0-----0-----------0---0-----|--------------------------4-------|
------4h5-----4-2-----4-------4-2-|--4---0-4---4-0-------0-4---4-2-4-|
----2---------------2-------------|----2-----2-----2---2-------------|
--0---------------0---------------|--0---------------0---------------|
                                                     
  S S S S S S S S S S S S S S S S    S S S S S S S S S S S S S S S S                                   
----------------------------------|--------------------------2-------|
----0-----0---------------0-------|----------0-----------1-3---3-----|
--0---0-----0-----------0---0-----|--------------------4---------0-2-|
------4h5-----4-2-----4-------4-2-|--4-----0---0---0-4---------------|
----2---------------2-------------|------2-------2-------------------|
--0---------------0---------------|----2-----------------------------|

  S S S S S S S S S S S S S S S S    S S S S S S S S S S S S S S S S                                  
----------------------------------|----------------------------------|
--0-3-0---0---------------0-------|----------------------------------|
------0-2---2-0-------0-2-----2-0-|--2-----------------------2-------|
----0-----------0---0-------0-----|--0---2-4-0-4-2-0-0---2-4---4-2-0-|
----------------------------------|----0---------------0-------------|
--3---------------3---------------|----------------------------------|

  S S S S S S S S S S S S S S S S    S S S S S S S S Q.     S S                                     
----------------------------------|-------------------------3-5-|
------------------------0-1-0-----|----------0------------------|
----------------------2-------0---|--------0---0---0------------|
--2-----0-2-0-------2-----------4-|--2---4-------4---2------5-7-|
------3-------3-2-0---------------|----2------------------------|
----3-----------------------------|--0--------------------------|

  S S  S S S S S S S  S S S S S S S    E  S S S S S S S S S S S S S S                                  
--7-10-7---------7-10-7---------5-3-|--5------------2-5-2---------3-5-|
--8----8---0---8--------8---0-------|--7------3---3-------3---3-------|
--0------0---7------------7---0-2-0-|-----------2-----------2-----0---|
-------0------------------------0---|--0----0-4---------------4-0---7-|
------------------------------------|-----0-----------------------0---|
------------------------------------|---------------------------------|
                                                 
  S S  S S S S S S S  S S S S S S S    E  S S S  S S S S S S S S S S S                                  
--7-10-7---------7-10-7---------5-3-|--5------10-------5-----------0---|
--8----8---0---8--------8---0-------|--7-------------7---7-----------7-|
--0------0---7------------7---0-2-0-|--------------7-------7-----------|
-------0------------------------0---|--0----0----7-----------7---0---0-|
------------------------------------|-----0---9----------------9---0---|
------------------------------------|----------------------------------|

  S S S S S S S S S S S S S S S S    S S S S S S S S S S S S S S S S                                 
----7-------------------------2-0-|--2---------------------------3-2-|
--8---8---0---------0-----0-------|----------0---------------0-------|
--------0---0-----0---0-----0-----|----------------------------------|
--------------2-4-------5---------|--0---0-4---4-0-2-4---0-4---4-0---|
------9---------------------------|----2---------------2-----------0-|
--0-7-------------0---------------|----------------------------------|
			    
Da Coda
  S S S S S S S S S S S S S S S S    S S S S S S S S S S S S S S S S                                   
--0---------------------------3-2-|--0---------------------------0-2-|
------------------------0-1-0-----|----------0-------------0-1-3-----|
--------------0-------2-------2---|--------0---0---0---0-2-----------|
--------0-2-0---4-2-------------2-|------4-------4---2---------------|
--3---3-------------0-------------|----2-----------------------------|
----3-----------------------------|--0-------------------------------|

  ^                          ^                          ^   
  E  E  E  E  E  E  E  E     E  E  E  E  E  E  E  E     E  E  E  E  E  E  E  E   
--3-----------7-----3-----|--0-----------------------|--5-----------8-----5-----|
--0--0--0--0--0--0--0--0--|--1--1--1--1--1--1--1--1--|--5--0--0--0--0--0--0--0--|
--0--0--0--0--0--0--0--0--|--0--0--0--0--0--0--0--0--|--5--0--0--0--0--0--0--0--|
--0--0--0--0--0--0--0--0--|--2--2--2--2--2--2--2--2--|--7-----------------------|
--2-----------------------|--3-----------------2-----|--0--7--7--7--7--7--7--7--|
--3-----------------------|--------------------------|--------------------------|

  ^                          ^                          ^
  E  E  E  E  E  E  E  E     E  E  E  E  E  E  E  E     E  E  E  E  E  E  E  E 
--2-----------------------|--7-----------10----7-----|--3-----------5-----7-----|
--3--1--1--1--1--1--1--1--|--7--0--0--0--0--0--0--0--|--0--0--0--0--0--0--0--0--|
--2--2--2--2--2--2--2--2--|--7-----------------------|--0--0--0--0--0--0--0--0--|
--0--0--0--0--0--0--0--0--|--9--0--0--0--0--0--0--0--|--2--2--2--2--2--2--2--2--|
--------------------3-----|--9--9--9--9--9--9--9--9--|--2-----------------------|
--------------------------|--7-----------------------|--0-----------------------|

  ^                          ^
  E  E  E  E  E  E  E  E     E  E  S S S S S S S S S S S S
--5-----0-----------3-----|--3---------------------------0-|
--2--2--2--2--2--2--2--2--|--0--0--0---------------0-2-4---|
--2--2--2--2--2--2--2--2--|--0--0--0-----------0-2---------|
--2--2--2--2--2--2--2--2--|--2--2--2-----1-2-4-------------|
--0-----------------------|--2-------2-4-------------------|
--------------------------|--------------------------------|

  ^
  E  E  S S S S S S S S S S S S    S S S S S S S S S S S S S S S S
--2-----------------------0-2-3-|--0-------------------------------|
--0--1--1-----------0-1-4-------|----------0---------------1-------|
--2--2--2-------0-2-------------|--------0---0-----------0---0-----|
--1--1----1-2-4-----------------|------4-------4-2---2-4-------4-2-|
--2-----------------------------|----2-------------2---------------|
--------------------------------|--0-------------------------------|

  S S S S S S S S S S S S S S S S       S  S S S S S S S S S S S S S S S
------------------------------------|--<12>------------------------------|
----------3---------------1---------|------------0---------------1-------|
--------0---0-----------0---0-------|----------0---0-----------0---0-----|
------4-------4-2---2-4-------------|----------------4-2---2-4-------4-2-|
----2-------------2-----------9-----|--------9-----------2---------------|
--0----------------------------<12>-|------7-----------------------------|

		       D.S. al Coda	   Coda
  S S S S S S S S S S S S S S S S          S S S S S S S S Q.     S S
----------------------------------|     |--0--------------------------|
----------3---------------1-------|     |----------0------------------|
--------0---0-----------0---0-----|     |--------0---0---0--------0---|
------4-------4-2---2-4-------2-4-|     |------4-------4---2--------4-|
----2-------------2---------------|     |----2------------------------|
--0-------------------------------|     |--0--------------------------|

                                     Ritardando                           AH
  S S S S S S S S S S S S S S S S    S S S S S S  S  S  S   S S  S  S  S  S  S
------------------------------0---|--3---------0-------<12>-0------<12>---3-<12>-|
--------------------------2-----2-|----------0------<12>-----<12>-----<12>-------|
------------------0---2-----2-----|--------0-----<12>-----------<12>-------------|
--2---------0-2-4-------2---------|------2---------------------------------------|
--0---0-2-4---------4-------------|----2-----------------------------------------|
----0-----------------------------|--0-------------------------------------------|

     AH
   S  S  S  S  S  S S S S S S S S S S S    S S S S S S S S H
|-<7>-3-<12>------0-------------0-------|---------------------------|
|-----------0-------0-----0-------------|----0-----1----------------|
|-------------<12>----0-----0-----0-----|------0-----0--------------|
|-----------------------2-----2-----2---|--2-----2-----2---2--------|
|-------------------------------------3-|----------------3-2--------|
|---------------------------------------|------------------0--------|
Login or Register to remove this ad.

1 comment on Terra's Theme

I guess I should mention that

I guess I should mention that this is from the piano collections :)