Ads

Terra's Theme (Final Fantasy VI) Guitar Tab

Submitted: Jun 18, 2010 by laoise (Last updated: Jun 18, 2010)

5
Average: 5 (11 votes)
Download | Listen
Game: Final Fantasy VI
Composer(s): Nobuo Uematsu
Style: Arrangement, Fingerstyle
Series: Final Fantasy

AutoScroll: Slow | Medium | Fast
Terra's Theme - Final Fantasy 6
Arranged By Laoise Earle

BPM = 80
                                                                                  |-3-|
     S S E  S S S S S S E  S S S S    S S E  S S S S S S E  E  S S      S S E  E  S S S E  E  E  S S
E||--------------------------------|-------------------------------||-----0--------------------------|
B||------1------1-------1------1---|------1------1-------1-------0-||---1---1--------------------0---|
G||----2------2---2---2------2---2-|----2------2---2---2-------2---||*-----------------------------2-|
D||--2------2-------2------2-------|--2------2-------2-------------||*-------------------------------|
A||--0--------------0--------------|--0--------------0-------------||---0---0--0--0-0-0-0--0--0--0---|
E||--------------------------------|-------------------------------||--------------------------------|


           |-3-|                           |-3-|                          |-3-|
  E  E  E  S S S E  E  E  S S    S S E  E  S S S E  E  E  S S    E  E  E  S S S E  E  E  S S
------------------------------|----0--------------------------|--------0---------------------|
--0-------------------------0-|--1---1--------------------0---|--0-----------------------1-3-|
--------------------------2---|-----------------------------2-|------------------------------|
--------2---------------------|-------------------------------|------------------------------|
------------------------------|--0---0--0--0-0-0-0--0--0--0---|------------------------------|
--0--0--0--0-0-0-0--0--0--0---|-------------------------------|--0--0--0--0-0-0-0--0--0--0---|


            |-3-|                          |-3-|                          |-3-|
  S S E  E  S S S E  E  E  S S    E  E  E  S S S E  E  E  S S    E  E  E  S S S E  E  E  S S
--0-3-0------------------------|------------------------------|------------------------------|
---------------------------3-1-|--3-----------------------1-0-|--------------------------1-0-|
-------------------------------|--------0---------------------|--2---------------------------|
-------------------------------|------------------------------|--3--3--3--3-3-3-0--0--0--0---|
--3---3--3--3-3-3-3--3--3--3---|------------------------------|------------------------------|
-------------------------------|--3--3--3--3-3-3-3--3--3--3---|------------------------------|

               1st ending-------              2nd ending--------
           |-3-|                              |-3-|
  E  E  E  S S S E  E  E  E  E       E  E  E  S S S E  E  E  S S    S S E  Q    Q    E  S S
---------------------------------||------------------------------|--0-3-0-------------------|
-----------------------------0---||--------------------------1-3-|----------------------3-1-|
--2-----------------------2-----*||--2---------------------------|-------------------0------|
--------------------------------*||------------------------------|--------------2-----------|
--0--0--0--0-0-0-0--0--0--0------||--0--0--0--0-0-0-0--0--0--0---|--3------3----------------|
---------------------------------||------------------------------|--------------------------|


                                                                                       |-3-|
  Q    H        E  S S    S S E  Q    Q    E  S S    Q    H        E  S S    S S E  E  S S S E  E  E  S S
-----------------------|--0-3-0-------------------|-------3---------------|----0--------------------------|
--3----------------1-3-|----------------------3-1-|--3------------------0-|--1---1--------------------0---|
-------0---------------|-------------------0------|-------------------2---|-----------------------------2-|
--5--------------------|--------------2-----------|--5--------------------|-------------------------------|
-----------------------|--3------3----------------|-----------------------|--0---0--0--0-0-0-0--0--0--0---|
-----------------------|--------------------------|-----------------------|-------------------------------|


           |-3-|                          |-3-|                          |-3-|
  E  E  E  S S S E  E  E  S S    E  E  E  S S S E  E  E  S S    E  E  E  S S S E  E  Q
------------------------------|------------------------------|----------------------------|
--0-----------------------1-0-|--------------------------1-0-|----------------------------|
------------------------------|--2---------------------------|--2-------------------------|
--------2---------------------|--3--3--3--3-3-3-0--0--0--0---|----------------------------|
------------------------------|------------------------------|--0--0--0--0-0-0-0--0--0----|
--0--0--0--0-0-0-0--0--0--0---|------------------------------|----------------------------|


  E  E  E  E  E  E  E  E     E  E  E  E  E  E  E  E     E  E  E  E  E  E  E  E     E  E  E  E  E  E  E  E
--------------0-----------|--------------------------|--------------1-----------|--------------------------|
--1-----1-----------1-----|--------------------------|--3-----------------3-----|--0-----------------------|
-----0-----0-----0-----0--|--2-----------------------|--------2-----------2-----|--------------------------|
--------------------------|--------------------------|--0--3-----3--0--3-----3--|--------0-----------0-----|
--3-----------3-----------|-----0--3--0-----0--3--0--|--------------------------|-----2-----2-----2-----2--|
--------------------------|--1-----------1-----------|--------------------------|--3-----------3-----------|


  E  E  E  E  E  E  E  E     E  E  E  E  E  E  E  E     E  E  E  E  E  E  E  E     E  E  E  E  E  E  E  E
--0-----------3-----0-----|-----------------------0--|--------------------------|--------------------------|
--------0-----------0-----|--1-----------------3-----|--3-----------------0-----|--1-----------------------|
-----0-----0-----0-----0--|--------------------------|--------2-----------------|--------------------------|
--2-----------2-----------|--------2-----------2-----|--------0-----------0-----|--------0-----------0-----|
--------------------------|--0--3-----3--0--3-----3--|-----0-----0-----0-----0--|-----3-----3-----3-----3--|
--------------------------|--------------------------|--1-----------1-----------|--3-----------3-----------|


  E  E  E  E  H
------------------------||
--0---------------------||
------------------------||
--------0---------------||
-----2-----2------------||
--3-----------3---------||





Duration Legend
---------------
W - whole
H - half
Q - quarter
E - 8th
S - 16th
T - 32nd
X - 64th
. - note dotted
|-n-|  - n-tuplets

Login or Register to remove this ad.

2 comments on Terra's Theme

Nice!

Nice!

Awesome, dude. Simple to

5

Awesome, dude. Simple to play. beautiful to hear.
I loved the bassline!