Ads

Techno de Chocobo (Final Fantasy VI) Guitar Tab

Submitted: Apr 22, 2013 by The Ripper

5
Average: 5 (1 vote)
Download | Listen
Game: Final Fantasy VI
Composer(s): Nobuo Uematsu
Style: Arrangement, Fingerstyle
Series: Final Fantasy

AutoScroll: Slow | Medium | Fast
	                                   Techno de Chocobo
                                           Final Fantasy VI 
                                       Composed  by Nobuo Uematsu
                                Tabbed by the Ripper  april 22nd 2013
                    I find the first bar to be the hardest Part. If you are having any troubles 
                          with it feel free to just play the bassline or melody.






   E  E  E  S S S E  S E  E   4x   Q    E  E  E  E  E  E   
E||-----3-----------1--1--------||--------------------------|
B||--3-----0--3-1-----------1---||---3----0--------3--0-----|
G||----------------------2-----*||*----------0-----------0--|
D||--------0--2-L-3----L-------*||*-------0--2--3--L--------|
A||----------------------3--L---||--------------------3--L--|
E||--3--------------------------||---3----------------------|


   Q    E  E  Q.     E     E  S  S E  E  Q    E  E     E  S S E  E  H           
|-----------------------|---------------------------|------------0--1---------||
|--0----------0---------|---------------------------|-------0-3---------------||
|-------0--L---------2--|--0--0h-2-0-----0----L--0--|--0--0------------------*||
|-------0--2--3---------|----------0--3-------------|-----0-L-2--3--L--------*||
|-----------------------|-------------7--8----------|-------------------------||
|--3--------------------|--3------------------8--L--|--3----------------------||


   Q    E  E  E  E  E  E     E  E  Q    E  E  E  E     Q    E  E  E  E  E  E   
|--0-------------------0--|--------3----------------|-------------------------|
|-------1-----------------|--3--L-------3--L--L--0--|--1-------------------1--|
|----------2-----2--5-----|-------------------------|-------2-----------2-----|
|-------------4-----------|-------------------------|----------4--0--4--------|
|--3-------3--5--L--0--L--|-------------------------|--3-------3--------0--L--|
|-------------------------|--3--3-------3--3--------|-------------------------|


   E  S  S  E  E  E  E  Q       Q    E  E  E  E  E  E   
|----------------------------|--0-------------------0--|
|--0--0h-1p-0-----0-----L----|-------1-----------------|
|--------------2-------------|----------2-----2--5-----|
|----------------------------|-------------4-----------|
|----------------------------|--3-------3--5--L--0--L--|
|--3--3--L--------3--3-------|-------------------------|


   E  E  Q    E  E  E  E     E  S S E  E  Q.     E     E  S S E  E  Q    Q     
|--------3----------------|-------------------------|---------------0----2----|
|--3--L-------3--L--L--0--|-------0-----------------|-------0-1--3------------|
|-------------------------|--2--2---2--0--2------0--|--2--2-------------------|
|-------------------------|--3----L-----------------|---------------4----0----|
|-------------------------|---------------0---------|--0----L-----------------|
|--3--3-------3--3--------|----------------------3--|---------3--L------------|


   W                  
|--3----------------||
|--3----------------||
|--0----------------||
|-------------------||
|-------------------||
|--3----------------||








                         Legend
	             ---------------
			W - whole
			H - half
			Q - quarter
			E - 8th
			S - 16th
			T - 32nd
			X - 64th
			. - note dotted
			|-n-|  - n-tuplets
			L - tied note

Login or Register to remove this ad.