Ads

Slam Shuffle (Final Fantasy VI) Guitar Tab

Submitted: Dec 02, 2010 by BacardiBreezer (Last updated: Apr 27, 2011)

0
Download | Listen
Game: Final Fantasy VI
Composer(s): Nobuo Uematsu
Style: Transcription
Series: Final Fantasy

Click here for a video example.

AutoScroll: Slow | Medium | Fast
Slam Shuffle ~ Zozo
Final Fantasy 6
Composer: Nobuo Uematsu
Tabbed by: Bacardibreezer
12/1/10

e|-----17---------14-12-14-15-14-12---11------------11-12---------------11-12---|
B|--------16---17------------------------13-12-10-----------------12-13---------|
G|--14------------------------------------------------------13-14---------------|
D|------------------------------------------------------------------------------|
A|------------------------------------------------------------------------------|
E|------------------------------------------------------------------------------|

e|-----17---------14-12-14-15-14-12---11----------------------------------------|
B|--------16---17------------------------13-12-10---12-13---------12-13--12-10--|
G|--14------------------------------------------------------13-14---------------|
D|------------------------------------------------------------------------------|
A|------------------------------------------------------------------------------|
E|------------------------------------------------------------------------------|

e|-----20----------17-15-17-18-17-15---14-------------14-15--------------14-15--|
B|--------19----20------------------------16-15-13-----------------15-16--------|
G|--17-------------------------------------------------------16-17--------------|
D|------------------------------------------------------------------------------|
A|------------------------------------------------------------------------------|
E|------------------------------------------------------------------------------|

e|-----17---------14-12-14-15-14-12---11----------------------------------------|
B|--------16---17------------------------13-12-10---12-13---------12-13--12-10--|
G|--14------------------------------------------------------13-14---------------|
D|------------------------------------------------------------------------------|
A|------------------------------------------------------------------------------|
E|------------------------------------------------------------------------------|

e|-------------------------------|	|---------------------------------------|
B|-------------------------------|	|---------------------------------------|
G|-------------------------------|	|----7-5-6-------7-5-6----6--6----------|
D|----7-5-6-------7-5-6----6--6--|	|--7-------7---7-------7--7--7----------|
A|--7-------7---7-------7--7--7--|	|---------------------------------------|
E|-------------------------------|x2	|---------------------------------------|

e|----------------------------------------------------|
B|----------------10-8--------------------------------|
G|----7-6-5------------9-8-7-6-5--------5-4-3-2-------|
D|--7-------7--7--------------------------------------|
A|----------------------------------------------------|
E|----------------------------------------------------|
Login or Register to remove this ad.

2 comments on Slam Shuffle

nice!

pretty darn good I've got to say...

Thanks! Glad you like it!

Thanks! Glad you like it!