Ads

Slam Shuffle (Final Fantasy VI) Guitar Tab

Submitted: Dec 21, 2009 by TheDoomOfAllFires

4.666665
Average: 4.7 (3 votes)
Download | Listen
Game: Final Fantasy VI
Composer(s): Nobuo Uematsu
Style: 2 or more instruments, Arrangement, Fingerstyle
Series: Final Fantasy

AutoScroll: Slow | Medium | Fast
Final Fantasy VI - Slam Shuffle
Arranged by TheDoomOfAllFires; 12/21/2009

3/4
BPM=85
Standard tuning


Hope you like it ! ^^



Guitar #1 :

      S S S E  S S S S E  S  4x   S S S E  S S S S E  S  
E||--------------------------||-------------------------|
B||--------------------------||-------------------------|
G||*------------------------*||*------------------------|
D||*-------------------1--2-*||*-------------------1--2-|
A||---0---0-3--2-0---0-------||---0---0-3--2-0---0------|
E||--------------------------||-------------------------|


  S S S E  S S S S S S S    S S S E  S S S S E  S    S S S E  S S S S E  S    
-------------------------|------------------------|-------------------------||
-------------------------|------------------------|-------------------------||
-------------------------|------------------------|------------------------*||
-------------------1---2-|-------------------1--2-|-------------------1--2-*||
--0---0-3--2-0---0-------|--0---0-3--2-0---0------|--0---0-3--2-0---0-------||
-------------------------|------------------------|-------------------------||


  S S S E  S S S S E  S    S S S E  S S S S E  S    S S S E  S S S S E  S  
------------------------|------------------------|------------------------|
------------------------|------------------------|------------------------|
------------------------|----------------------0-|----------------------0-|
-------------------1--2-|--------1--0-------4----|--------1--0-------4----|
--0---0-3--2-0---0------|--3---3------3---3------|--3---3------3---3------|
------------------------|------------------------|------------------------|


  S S S E  S S S S E  S    S S S E  S S S S E  S    S S S E  S S S S E  S  
------------------------|------------------------|------------------------|
------------------------|------------------------|------------------------|
----------------------0-|----------------------0-|------------------------|
--------1--0-------4----|--------1--0-------4----|-------------------1--2-|
--3---3------3---3------|--3---3------3---3------|--0---0-3--2-0---0------|
------------------------|------------------------|------------------------|


  S S S E  S S S S S S S    S S S E  S S S S E  S    S S S E  S S S S S S S  
-------------------------|------------------------|-------------------------|
-------------------------|------------------------|-------------------------|
-------------------------|------------------------|-------------------------|
-------------------1---2-|-------------------1--2-|-------------------1---2-|
--0---0-3--2-0---0-------|--0---0-3--2-0---0------|--0---0-3--2-0---0-------|
-------------------------|------------------------|-------------------------|


  S S S E  S E  S E  S    E  S E  S E  S E  S    S S S E  S E  S E  S  
-----------------------|----------------------|-----------------------|
-----------------------|----------------------|-----------------------|
--------2--0-1---------|--2--0-1--------------|--------2--0-1---------|
--------4----2--2----2-|--4----2--2----2----2-|--------4----2--2----2-|
--2---2----------------|----------------------|--2---2----------------|
-------------0---------|--0----0--------------|-------------0---------|


  E  S E  S E  S E  S    S S S E  S E  S E  S    E  S E  S E  S E  S  
----------------------|-----------------------|----------------------|
----------------------|--------3--1-2---------|--3--1-2--------------|
--2--0-1--------------|--------2----2--2----2-|--2----2--2----2----2-|
--4----2--2----2----2-|--2---2----------------|----------------------|
----------------------|--0----------0---------|--0----0--------------|
--0----0--------------|-----------------------|----------------------|


  S S S E  S E  S E  S    S  S S S  S  S E.  E.     E.  E.  E.  S  S S  
-----------------------|--5p-3-0-----------------|---------------------|
--------3--1-2---------|---------4p-3p-2-1-------|--------------1p-0---|
--------2----2--2----2-|-------------------------|-------------------3-|
--2---2----------------|---------------------2---|------2-------2------|
--0----------0---------|--0--------------0-------|--0-------0----------|
-----------------------|-------------------------|---------------------|


  E  E.  S Q    S S    E  S E  S E.  S S S      S S S E  S S S S E  S  
--------------------|----------------------||-------------------------|
--------------------|----------------------||-------------------------|
--2-----------------|----------------------||*------------------------|
-----------2--------|--2----2----2---------||*-------------------1--2-|
--0--------0--------|--0----0----0---------||---0---0-3--2-0---0------|
---------4--------4-|-----4----4-----0-2-4-||-------------------------|


  S S S E  S S S S S S S    S S S E  S S S S E  S    S S S E  S S S S E  S    
-------------------------|------------------------|-------------------------||
-------------------------|------------------------|-------------------------||
-------------------------|------------------------|------------------------*||
-------------------1---2-|-------------------1--2-|-------------------1--2-*||
--0---0-3--2-0---0-------|--0---0-3--2-0---0------|--0---0-3--2-0---0-------||
-------------------------|------------------------|-------------------------||


  S S S E  S S S S E  S    S S S E  S S S S E  S    S S S E  S S S S E  S  
------------------------|------------------------|------------------------|
------------------------|------------------------|------------------------|
------------------------|----------------------0-|----------------------0-|
-------------------1--2-|--------1--0-------4----|--------1--0-------4----|
--0---0-3--2-0---0------|--3---3------3---3------|--3---3------3---3------|
------------------------|------------------------|------------------------|


  S S S E  S S S S E  S    S S S E  S S S S E  S    S S S E  S S S S E  S  
------------------------|------------------------|------------------------|
------------------------|------------------------|------------------------|
----------------------0-|----------------------0-|------------------------|
--------1--0-------4----|--------1--0-------4----|-------------------1--2-|
--3---3------3---3------|--3---3------3---3------|--0---0-3--2-0---0------|
------------------------|------------------------|------------------------|


  S S S E  S S S S S S S    S S S E  S S S S E  S    S S S E  S S S S S S S  
-------------------------|------------------------|-------------------------|
-------------------------|------------------------|-------------------------|
-------------------------|------------------------|-------------------------|
-------------------1---2-|-------------------1--2-|-------------------1---2-|
--0---0-3--2-0---0-------|--0---0-3--2-0---0------|--0---0-3--2-0---0-------|
-------------------------|------------------------|-------------------------|


  S S S E  S E  S E  S    E  S E  S E  S E  S    S S S E  S E  S E  S  
-----------------------|----------------------|-----------------------|
-----------------------|----------------------|-----------------------|
--------2--0-1---------|--2--0-1--------------|--------2--0-1---------|
--------4----2--2----2-|--4----2--2----2----2-|--------4----2--2----2-|
--2---2----------------|----------------------|--2---2----------------|
-------------0---------|--0----0--------------|-------------0---------|


  E  S E  S E  S E  S    S S S E  S E  S E  S    E  S E  S E  S E  S  
----------------------|-----------------------|----------------------|
----------------------|--------3--1-2---------|--3--1-2--------------|
--2--0-1--------------|--------2----2--2----2-|--2----2--2----2----2-|
--4----2--2----2----2-|--2---2----------------|----------------------|
----------------------|--0----------0---------|--0----0--------------|
--0----0--------------|-----------------------|----------------------|


  S S S E  S E  S E  S    S  S S S  S  S E.  E.     E.  E.  E.  S  S S  
-----------------------|--5p-3-0-----------------|---------------------|
--------3--1-2---------|---------4p-3p-2-1-------|--------------1p-0---|
--------2----2--2----2-|-------------------------|-------------------3-|
--2---2----------------|---------------------2---|------2-------2------|
--0----------0---------|--0--------------0-------|--0-------0----------|
-----------------------|-------------------------|---------------------|


  E  Q.     Q      
-----------------||
-----------------||
--2--------------||
--2--------------||
--0--------------||
-----------------||


___________________



Guitar #2 :

            4x   S E  E  S S Q    S    S S S E  S S S S S S  S  
E||---------||--------5-----------0-|--2---0-2--3-2---0--------|
B||---------||-------------4--------|-------------------4-1p-0-|
G||*-------*||*--2------------------|--------------------------|
D||*-------*||*---------------------|--------------------------|
A||---------||----------------------|--------------------------|
E||---------||----------------------|--------------------------|


  S Q    S S Q    S    S S S  E  S S S Q         S S S  E  S S E.  E   
-----------0--------|--------------0---------||-----------------------|
---------4----------|------0h-1--4-----------||------0h-1--0----------|
--2---------------1-|--2--------------------*||--2-----------2--------|
--------------------|-----------------------*||-----------------------|
--------------------|------------------------||-----------------------|
--------------------|------------------------||-----------------------|


   S E  E  S S Q    S     S S S  E   S  S S S  S S S     S Q    S S Q    S  
--------8-------------|------------------------------|---------------------|
-------------7------8-|--10---8-10--11-10---8--------|----------7-8--------|
----------------------|-----------------------11-8-7-|---------------------|
--10------------------|------------------------------|--10---------------9-|
----------------------|------------------------------|---------------------|
----------------------|------------------------------|---------------------|


   S S S E  S S E.  E     S E  E  S S Q    S    S S S E  S S S S S S  S  
-----------------------|-------5-----------0-|--2---0-2--3-2---0--------|
------------7-8--------|------------4--------|-------------------4-1p-0-|
-------7-8-------------|--2------------------|--------------------------|
--10-------------------|---------------------|--------------------------|
-----------------------|---------------------|--------------------------|
-----------------------|---------------------|--------------------------|


  S Q    S S Q    S    S S S  E  S S S Q                                     
--------------------|-----------------------|-------|-------|-------|-------|
-----------1--------|------0h-1--0----------|-------|-------|-------|-------|
--2------4--------1-|--2-----------2--------|-------|-------|-------|-------|
--------------------|-----------------------|-------|-------|-------|-------|
--------------------|-----------------------|-------|-------|-------|-------|
--------------------|-----------------------|-------|-------|-------|-------|


                          S  S S  S  S S  E  Q       H        S S  S  S  
-------|-------|-------|--------------------------|---------------------|
-------|-------|-------|--------------------------|---------------------|
-------|-------|-------|--2p-0--------------------|---------------------|
-------|-------|-------|-------2p-1p-0------------|---------------------|
-------|-------|-------|---------------4p-3-------|-------------3p-2p-1-|
-------|-------|-------|--------------------------|---------------------|


  Q.     Q    S S    E  S E  S E.  E.       S E  E  S S Q    S  
------------------|--------------------||--------5-----------0-|
------------------|--------------------||-------------4--------|
------------------|--------------------||*--2------------------|
---------2--------|--2----2----2-------||*---------------------|
--0------0--------|--0----0----0-------||----------------------|
----------------4-|-----4----4---------||----------------------|


  S S S E  S S S S S S  S    S Q    S S Q    S    S S S  E  S S S Q       
--2---0-2--3-2---0--------|-----------0--------|--------------0---------||
-------------------4-1p-0-|---------4----------|------0h-1--4-----------||
--------------------------|--2---------------1-|--2--------------------*||
--------------------------|--------------------|-----------------------*||
--------------------------|--------------------|------------------------||
--------------------------|--------------------|------------------------||


  S S S  E  S S E.  E      S E  E  S S Q    S     S S S  E   S  S S S  S S S  
-----------------------|--------8-------------|------------------------------|
------0h-1--0----------|-------------7------8-|--10---8-10--11-10---8--------|
--2-----------2--------|----------------------|-----------------------11-8-7-|
-----------------------|--10------------------|------------------------------|
-----------------------|----------------------|------------------------------|
-----------------------|----------------------|------------------------------|


   S Q    S S Q    S     S S S E  S S E.  E     S E  E  S S Q    S  
---------------------|-----------------------|-------5-----------0-|
----------7-8--------|------------7-8--------|------------4--------|
---------------------|-------7-8-------------|--2------------------|
--10---------------9-|--10-------------------|---------------------|
---------------------|-----------------------|---------------------|
---------------------|-----------------------|---------------------|


  S S S E  S S S S S S  S    S Q    S S Q    S    S S S  E  S S S Q             
--2---0-2--3-2---0--------|--------------------|-----------------------|-------|
-------------------4-1p-0-|-----------1--------|------0h-1--0----------|-------|
--------------------------|--2------4--------1-|--2-----------2--------|-------|
--------------------------|--------------------|-----------------------|-------|
--------------------------|--------------------|-----------------------|-------|
--------------------------|--------------------|-----------------------|-------|


                                                  S  S S  S  S S E  Q     
-------|-------|-------|-------|-------|-------|-------------------------|
-------|-------|-------|-------|-------|-------|-------------------------|
-------|-------|-------|-------|-------|-------|--2p-0-------------------|
-------|-------|-------|-------|-------|-------|-------2p-1p-0-----------|
-------|-------|-------|-------|-------|-------|---------------4---------|
-------|-------|-------|-------|-------|-------|-------------------------|


-------|-------||
-------|-------||
-------|-------||
-------|-------||
-------|-------||
-------|-------||




Duration Legend
---------------
W - whole
H - half
Q - quarter
E - 8th
S - 16th
T - 32nd
X - 64th
. - note dotted
|-n-|  - n-tuplets


Tablature Legend
----------------
L - tied note
x - dead note
g - grace note
(n) - ghost note
> - accentuded note
NH - natural harmonic
AH - artificial harmonic
TH - tapped harmonic
SH - semi harmonic
PH - pitch harmonic
h - hammer on
p - pull off
b - bend
br - bendRelease
pb - preBend
pbr - preBendRelease
brb - bendReleaseBend
\n/ - tremolo bar dip
\n - tremolo bar dive
-/n - tremolo bar Release up
/n\ - tremolo bar inverted dip
/n - tremolo bar return
-\n - tremolo bar Release down
S - shift slide
s - legato slide
/ -  slide into from below or out of upwards
\ -  slide into from above or out of downwards
~ - vibrato
W - wide vibrato
tr - trill
TP - tremolo picking
T - tapping
S - slap
P - pop
< - fade in
^ - brush up
v - brush down
Login or Register to remove this ad.

3 comments on Slam Shuffle

This sounds really awesome!

This sounds really awesome! It must be so fun to play it. Arrangements like that make me wish I had a guitar-pal to play with.
Really nice tab, it's flawless! You're the man!

Fun!

5

Fun! Though I found one mistake.

In the second guitar part, measures 4 5 and 6:

                      ending 1                  ending 2
  S Q    S S Q    S    S S S  E  S S S Q         S S S  E  S S E.  E   
-----------0--------|--------------0---------||-----------------------|
---------4----------|------0h-1--4-----------||------0h-1--0----------|
--2---------------1-|--2--------------------*||--2-----------2--------|
--------------------|-----------------------*||-----------------------|
--------------------|------------------------||-----------------------|
--------------------|------------------------||-----------------------|

I marked the endings you have for clarity. The first time through, measure 4 plays, followed by measure 5. And this is correct.

The second time through, measure 4 plays, followed by measure 6. This is incorrect--the second time around, measure 4 should be replaced with:

  S Q    S S Q    S                                 
--------------------|
-----------1--------|
--2------4--------1-|
--------------------|
--------------------|
--------------------|

To compound the problem, it is also played the wrong way in the midi.

Perfect

4

I like It !!!