Prelude (Final Fantasy VI) Bass/Guitar Tab

Submitted: Mar 22, 2012 by hashel

5
Average: 5 (4 votes)
Download | Listen
Game: Final Fantasy VI
Composer(s): Nobuo Uematsu
Style: 2 or more instruments, Alternate picking, Arrangement
Series: Final Fantasy

This song is also called Crystal Theme

AutoScroll: Slow | Medium | Fast
Dl GP5 file for all the tracks

Title: Crystal Theme
SubTitle: Prelude
Artist: Nobuo Uematsu
Album: Final Fantasy OST
Copyright: Squaresoft
Tabber: Hashel05
Tempo = 90


Crystal Theme

E |----------------------------|--8-------------------------|
B |-----------------------8----|-----8----------------------|
G |--------------5--7--9-------|--------9--7--5-------------|
D |-----------5----------------|-----------------5----------|
A |-----5--7-------------------|--------------------7--5----|
E |--8-------------------------|----------------------------|


----------------------------|--5-------------------------|
-----------------------5----|-----5----------------------|
--------------2--4--5-------|--------5--4--2-------------|
-----------2----------------|-----------------2----------|
-----2--3-------------------|--------------------3--2----|
--5-------------------------|----------------------------|


----------------------------|--8-------------------------|
-----------------------8----|-----8----------------------|
--------------5--7--9-------|--------9--7--5-------------|
-----------5----------------|-----------------5----------|
-----5--7-------------------|--------------------7--5----|
--8-------------------------|----------------------------|


----------------------------|--5-------------------------|
-----------------------5----|-----5----------------------|
--------------2--4--5-------|--------5--4--2-------------|
-----------2----------------|-----------------2----------|
-----2--3-------------------|--------------------3--2----|
--5-------------------------|----------------------------|


----------------------------|--5-------------------------|
--------------------6--8----|-----8--6-------------------|
-----------------5----------|-----------5----------------|
--------3--5--7-------------|--------------7--5--3-------|
-----3----------------------|-----------------------3----|
--5-------------------------|----------------------------|


-----------------------5----|--7--5----------------------|
--------------------8-------|--------8-------------------|
-----------------7----------|-----------7----------------|
--------5--7--9-------------|--------------9--7--5-------|
-----5----------------------|-----------------------5----|
--7-------------------------|----------------------------|


-----------------------3----|--4--3----------------------|
--------------------4-------|--------4-------------------|
-----------------5----------|-----------5----------------|
-----------5--6-------------|--------------6--5----------|
-----3--6-------------------|--------------------6--3----|
--4-------------------------|----------------------------|


-----------------------5----|--6--5----------------------|
--------------------6-------|--------6-------------------|
-----------------7----------|-----------7----------------|
-----------7--8-------------|--------------8--7----------|
-----5--8-------------------|--------------------8--5----|
--6-------------------------|----------------------------|

(Play all the song)


Melody + Solo



16 mesures rest
----|--20~--|--19-20b--|--20~--|----------------|-------|----------|
----|-------|----------|-------|----------------|-------|----------|
----|-------|----------|-------|--19-17-16-19---|--17~--|--16-19---|
----|-------|----------|-------|----------------|-------|----------|
----|-------|----------|-------|----------------|-------|----------|
----|-------|----------|-------|----------------|-------|----------|


----------------------------|----------------|-------|----------|
----------------------------|--17-15-13-12---|-------|----------|
--19s21-17~-----------------|----------------|--14~--|-----14---|
----------------------------|----------------|-------|--17------|
----------------------------|----------------|-------|----------|
----------------------------|----------------|-------|----------|


----------------|----------|-------|----------------|----------------|
----------------|----------|-------|----------------|-----------16---|
--16-------17---|--19-16---|--17~--|--19b19-17-19b--|--19~-----------|
----------------|----------|-------|----------------|----------------|
----------------|----------|-------|----------------|----------------|
----------------|----------|-------|----------------|----------------|


----------|-------|----------------------------------------------------|-------|
--18-15---|--13~--|--13h15L---------------15-13L---------13----13h15h--|--13~--|
----------|-------|----------------------------------------------------|-------|
----------|-------|----------------------------------------------------|-------|
----------|-------|----------------------------------------------------|-------|
----------|-------|----------------------------------------------------|-------|


----------------------------|
----------------------------|
--14b---------14b14~---12---|
----------------------------|
----------------------------|
----------------------------|


----------------------------------------------------|
----------------------------------------------------|
----------------------------------------------------|
--12h14L------14L---------------14~---------12h14---|
----------------------------------------------------|
----------------------------------------------------|


----------------------------|----------------------------|
-----------15---------------|----------------------------|
--12s---x--14b---------14---|--12~---------------12h14---|
--12s---x-------------------|----------------------------|
----------------------------|----------------------------|
----------------------------|----------------------------|


----------------------------|----------------------------|
----------------------------|----------------------------|
--9~----------12h14-9h-7----|--5L----------5~-------5----|
----------------------------|--------------------7-------|
----------------------------|----------------------------|
----------------------------|----------------------------|


--------------------------------------------------------------------------------
--------------------------------------------------------------------------------
--7b----------7~----------------------------------7b----------7-----------5h-7h-
--------------------------------------------------------------------------------
--------------------------------------------------------------------------------
--------------------------------------------------------------------------------


--------------------|-------|--------5--------8--10b10---|--8~---|
--------------------|-------|-----5-----8h-10------------|-------|
5h-7----------------|-------|--7b------------------------|-------|
------7-------------|--7~---|----------------------------|-------|
--------------------|-------|----------------------------|-------|
--------------------|-------|----------------------------|-------|


--5-----------------8h-10s--|--12-------12b--|--10~-----------|--18~--|
-----5--8-------------------|----------------|--------12h13~--|-------|
-----------7b-7--5----------|----------------|----------------|-------|
----------------------------|----------------|----------------|-------|
----------------------------|----------------|----------------|-------|
----------------------------|----------------|----------------|-------|


--19-20b--|--20~--|----------------|-------|----------|
----------|-------|----------------|-------|----------|
----------|-------|--19-17-16-19---|--17~--|--16-19---|
----------|-------|----------------|-------|----------|
----------|-------|----------------|-------|----------|
----------|-------|----------------|-------|----------|


----------------------------|----------------|-------|----------|
----------------------------|--17-15-13-12---|-------|----------|
--19s21-17~-----------------|----------------|--14~--|-----14---|
----------------------------|----------------|-------|--17------|
----------------------------|----------------|-------|----------|
----------------------------|----------------|-------|----------|


----------------|----------|-------|----------------|----------------|
----------------|----------|-------|----------------|-----------16---|
--16-------17---|--19-16---|--17~--|--19b19-17-19b--|--19~-----------|
----------------|----------|-------|----------------|----------------|
----------------|----------|-------|----------------|----------------|
----------------|----------|-------|----------------|----------------|


----------|-------|----||
--18-15---|-------|----||
----------|--17~--|----||
----------|-------|----||
----------|-------|----||
----------|-------|----||



Rhythm


32 mesures rest
----|-------|----------------|-------|----------------|-------|----------------|
----|-------|----------------|-------|----------------|-------|----------------|
----|--5L---|--5--------5----|--2L---|--2-------------|--5L---|--5--------5----|
----|--5L---|--5--------5----|--2L---|--2--------5----|--5L---|--5--------5----|
----|--3L---|--3--------3----|--0L---|--0--------5----|--3L---|--3--------3----|
----|-------|----------------|-------|-----------3----|-------|----------------|


-------|----------------|-------|----------|-------|----------|----------------|
-------|----------------|-------|----------|-------|----------|----------------|
--2L---|--2--------2----|-------|----------|--7----|--7--9----|--10-------10---|
--2L---|--2--------2----|--3----|--5--7----|--5----|--7--9----|--10-------10---|
--0L---|--0--------0----|--3----|--5--7----|--5----|--5--7----|--8--------8----|
-------|----------------|--1----|--3--5----|-------|----------|----------------|


-------|----------------|----------------|-------|----------------|-------|
-------|----------------|----------------|-------|----------------|-------|
--10---|--12-------12---|--12-------12---|--5----|--5--------5----|--2L---|
--10---|--10-------10---|--10-------10---|--5----|--5--------5----|--2L---|
--8----|--10-------10---|--10-------10---|--3----|--3--------3----|--0L---|
-------|----------------|----------------|-------|----------------|-------|


----------------|-------|----------------|-------|----------------|-------|
----------------|-------|----------------|-------|----------------|-------|
--2-------------|--5L---|--5--------5----|--2L---|--2--------2----|-------|
--2--------5----|--5L---|--5--------5----|--2L---|--2--------2----|--3----|
--0--------5----|--3L---|--3--------3----|--0L---|--0--------0----|--3----|
-----------3----|-------|----------------|-------|----------------|--1----|


----------|-------|----------|----------------|-------|----------------|
----------|-------|----------|----------------|-------|----------------|
----------|--7----|--7--9----|--10-------10---|--10---|--12-------12---|
--5--7----|--5----|--7--9----|--10-------10---|--10---|--10-------10---|
--5--7----|--5----|--5--7----|--8--------8----|--8----|--10-------10---|
--3--5----|-------|----------|----------------|-------|----------------|


----------------|-------|----------------|-------|----------------|-------|
----------------|-------|----------------|-------|----------------|-------|
--12-------12---|--5----|--5--------5----|--2L---|--2-------------|--5L---|
--10-------10---|--5----|--5--------5----|--2L---|--2--------5----|--5L---|
--10-------10---|--3----|--3--------3----|--0L---|--0--------5----|--3L---|
----------------|-------|----------------|-------|-----------3----|-------|


----------------|-------|----------------|-------|----------|-------|----------|
----------------|-------|----------------|-------|----------|-------|----------|
--5--------5----|--2L---|--2--------2----|-------|----------|--7----|--7--9----|
--5--------5----|--2L---|--2--------2----|--3----|--5--7----|--5----|--7--9----|
--3--------3----|--0L---|--0--------0----|--3----|--5--7----|--5----|--5--7----|
----------------|-------|----------------|--1----|--3--5----|-------|----------|


----------------|-------|----------------|----------------|-------|----||
----------------|-------|----------------|----------------|--5----|----||
--10-------10---|--10---|--12-------12---|--12-------12---|--5----|----||
--10-------10---|--10---|--10-------10---|--10-------10---|--5----|----||
--8--------8----|--8----|--10-------10---|--10-------10---|--3----|----||
----------------|-------|----------------|----------------|-------|----||




Bass Line


16 mesures rest
----|----------------------------------------------------|
----|----------------------------------------------------|
----|--3-----3--3--3-----3--3--3-----3--3--3-----3--3----|
----|----------------------------------------------------|


----------------------------------------------------|
----------------------------------------------------|
--3-----3--3--3-----3--3--3-----3--3--3-----3--3----|
----------------------------------------------------|


----------------------------------------------------|
----------------------------------------------------|
----------------------------------------------------|
--5-----5--5--5-----5--5--5-----5--5--5-----5--5----|


----------------------------------------------------|
----------------------------------------------------|
----------------------------------------------------|
--5-----5--5--5-----5--5--5-----5--5--5-----5--5----|


----------------------------------------------------|
----------------------------------------------------|
--3-----3--3--3-----3--3--3-----3--3--3-----3--3----|
----------------------------------------------------|


----------------------------------------------------|
----------------------------------------------------|
--3-----3--3--3-----3--3--3-----3--3--3-----3--3----|
----------------------------------------------------|


----------------------------------------------------|
----------------------------------------------------|
----------------------------------------------------|
--5-----5--5--5-----5--5--5-----5--5--5-----5--5----|


----------------------------------------------------|
----------------------------------------------------|
----------------------------------------------------|
--5-----5--5--5-----5--5--5-----5--5--5-----5--5----|


----------------------------------------------------|
----------------------------------------------------|
----------------------------------------------------|
--1-----1--1--1-----1--1--1-----1--1--1-----1--1----|


----------------------------------------------------|
----------------------------------------------------|
----------------------------------------------------|
--1-----1--1--1-----1--1--1-----1--1--1-----1--1----|


----------------------------------------------------|
----------------------------------------------------|
----------------------------------------------------|
--3-----3--3--3-----3--3--3-----3--3--3-----3--3----|


----------------------------------------------------|
----------------------------------------------------|
----------------------------------------------------|
--3-----3--3--3-----3--3--3-----3--3--3-----3--3----|


----------------------------------------------------|
----------------------------------------------------|
----------------------------------------------------|
--4-----4--4--4-----4--4--4-----4--4--4-----4--4----|


----------------------------------------------------|
----------------------------------------------------|
----------------------------------------------------|
--4-----4--4--4-----4--4--4-----4--4--4-----4--4----|


----------------------------------------------------|
----------------------------------------------------|
--1-----1--1--1-----1--1--1-----1--1--1-----1--1----|
----------------------------------------------------|


----------------------------------------------------|
----------------------------------------------------|
--1-----1--1--1-----1--1--1-----1--1--1-----1--1----|
----------------------------------------------------|


----------------------------------------------------|
----------------------------------------------------|
--3-----3--3--3-----3--3--3-----3--3--3-----3--3----|
----------------------------------------------------|


----------------------------------------------------|
----------------------------------------------------|
--3-----3--3--3-----3--3--3-----3--3--3-----3--3----|
----------------------------------------------------|


----------------------------------------------------|
----------------------------------------------------|
----------------------------------------------------|
--5-----5--5--5-----5--5--5-----5--5--5-----5--5----|


----------------------------------------------------|
----------------------------------------------------|
----------------------------------------------------|
--5-----5--5--5-----5--5--5-----5--5--5-----5--5----|


----------------------------------------------------|
----------------------------------------------------|
--3-----3--3--3-----3--3--3-----3--3--3-----3--3----|
----------------------------------------------------|


----------------------------------------------------|
----------------------------------------------------|
--3-----3--3--3-----3--3--3-----3--3--3-----3--3----|
----------------------------------------------------|


----------------------------------------------------|
----------------------------------------------------|
----------------------------------------------------|
--5-----5--5--5-----5--5--5-----5--5--5-----5--5----|


----------------------------------------------------|
----------------------------------------------------|
----------------------------------------------------|
--5-----5--5--5-----5--5--5-----5--5--5-----5--5----|


----------------------------------------------------|
----------------------------------------------------|
----------------------------------------------------|
--1-----1--1--1-----1--1--1-----1--1--1-----1--1----|


----------------------------------------------------|
----------------------------------------------------|
----------------------------------------------------|
--1-----1--1--1-----1--1--1-----1--1--1-----1--1----|


----------------------------------------------------|
----------------------------------------------------|
----------------------------------------------------|
--3-----3--3--3-----3--3--3-----3--3--3-----3--3----|


----------------------------------------------------|
----------------------------------------------------|
----------------------------------------------------|
--3-----3--3--3-----3--3--3-----3--3--3-----3--3----|


----------------------------------------------------|
----------------------------------------------------|
----------------------------------------------------|
--4-----4--4--4-----4--4--4-----4--4--4-----4--4----|


----------------------------------------------------|
----------------------------------------------------|
----------------------------------------------------|
--4-----4--4--4-----4--4--4-----4--4--4-----4--4----|


----------------------------------------------------|
----------------------------------------------------|
--1-----1--1--1-----1--1--1-----1--1--1-----1--1----|
----------------------------------------------------|


----------------------------------------------------|
----------------------------------------------------|
--1-----1--1--1-----1--1--1-----1--1--1-----1--1----|
----------------------------------------------------|


----------------------------------------------------|
----------------------------------------------------|
--3-----3--3--3-----3--3--3-----3--3--3-----3--3----|
----------------------------------------------------|


----------------------------------------------------|
----------------------------------------------------|
--3-----3--3--3-----3--3--3-----3--3--3-----3--3----|
----------------------------------------------------|


----------------------------------------------------|
----------------------------------------------------|
----------------------------------------------------|
--5-----5--5--5-----5--5--5-----5--5--5-----5--5----|


----------------------------------------------------|
----------------------------------------------------|
----------------------------------------------------|
--5-----5--5--5-----5--5--5-----5--5--5-----5--5----|


----------------------------------------------------|
----------------------------------------------------|
--3-----3--3--3-----3--3--3-----3--3--3-----3--3----|
----------------------------------------------------|


----------------------------------------------------|
----------------------------------------------------|
--3-----3--3--3-----3--3--3-----3--3--3-----3--3----|
----------------------------------------------------|


----------------------------------------------------|
----------------------------------------------------|
----------------------------------------------------|
--5-----5--5--5-----5--5--5-----5--5--5-----5--5----|


----------------------------------------------------|
----------------------------------------------------|
----------------------------------------------------|
--5-----5--5--5-----5--5--5-----5--5--5-----5--5----|


----------------------------------------------------|
----------------------------------------------------|
----------------------------------------------------|
--1-----1--1--1-----1--1--1-----1--1--1-----1--1----|


----------------------------------------------------|
----------------------------------------------------|
----------------------------------------------------|
--1-----1--1--1-----1--1--1-----1--1--1-----1--1----|


----------------------------------------------------|
----------------------------------------------------|
----------------------------------------------------|
--3-----3--3--3-----3--3--3-----3--3--3-----3--3----|


----------------------------------------------------|
----------------------------------------------------|
----------------------------------------------------|
--3-----3--3--3-----3--3--3-----3--3--3-----3--3----|


----------------------------------------------------|
----------------------------------------------------|
----------------------------------------------------|
--4-----4--4--4-----4--4--4-----4--4--4-----4--4----|


----------------------------------------------------|
----------------------------------------------------|
----------------------------------------------------|
--4-----4--4--4-----4--4--4-----4--4--4-----4--4----|


----------------------------------------------------|
----------------------------------------------------|
--1-----1--1--1-----1--1--1-----1--1--1-----1--1----|
----------------------------------------------------|


----------------------------------------------------|
----------------------------------------------------|
--1-----1--1--1-----1--1--1-----1--1--1-----1--1----|
----------------------------------------------------|


----------------------------------------------------|
----------------------------------------------------|
--3-----3--3--3-----3--3--3-----3--3--3-----3--3----|
----------------------------------------------------|


----------------------------------------------------|
----------------------------------------------------|
--3-----3--3--3-----3--3--3-----3--3--3-----3--3----|
----------------------------------------------------|


----------------------------------------------------|
----------------------------------------------------|
----------------------------------------------------|
--5-----5--5--5-----5--5--5-----5--5--5-----5--5----|


----------------------------------------------------|
----------------------------------------------------|
----------------------------------------------------|
--5-----5--5--5-----5--5--5-----5--5--5-----5--5----|


----------------------------------------------------|
----------------------------------------------------|
--3-----3--3--3-----3--3--3-----3--3--3-----3--3----|
----------------------------------------------------|


----------------------------------------------------|
----------------------------------------------------|
--3-----3--3--3-----3--3--3-----3--3--3-----3--3----|
----------------------------------------------------|


----------------------------------------------------|
----------------------------------------------------|
----------------------------------------------------|
--5-----5--5--5-----5--5--5-----5--5--5-----5--5----|


----------------------------------------------------|
----------------------------------------------------|
----------------------------------------------------|
--5-----5--5--5-----5--5--5-----5--5--5-----5--5----|


----------------------------------------------------|
----------------------------------------------------|
----------------------------------------------------|
--1-----1--1--1-----1--1--1-----1--1--1-----1--1----|


----------------------------------------------------|
----------------------------------------------------|
----------------------------------------------------|
--1-----1--1--1-----1--1--1-----1--1--1-----1--1----|


----------------------------------------------------|
----------------------------------------------------|
----------------------------------------------------|
--3-----3--3--3-----3--3--3-----3--3--3-----3--3----|


----------------------------------------------------|
----------------------------------------------------|
----------------------------------------------------|
--3-----3--3--3-----3--3--3-----3--3--3-----3--3----|


----------------------------------------------------|
----------------------------------------------------|
----------------------------------------------------|
--4-----4--4--4-----4--4--4-----4--4--4-----4--4----|


----------------------------------------------------|
----------------------------------------------------|
----------------------------------------------------|
--4-----4--4--4-----4--4--4-----4--4--4-----4--4----|


----------------------------------------------------|
----------------------------------------------------|
--1-----1--1--1-----1--1--1-----1--1--1-----1--1----|
----------------------------------------------------|


----------------------------------------------------|----|----||
----------------------------------------------------|----|----||
--1-----1--1--1-----1--1--1-----1--1--1-----1--1----|----|----||
----------------------------------------------------|----|----||
Login or Register to remove this ad.

2 comments on Prelude

Awesome

5

The way you tabbed the guitars make tab not only wonderful but also perfect as a beginner-friendly song for sweep picking and vibrato :D

Thanks :D I do tabs the way i

Thanks :D
I do tabs the way i can play them, and as i'm not the most skilled guitar player i try to keep them easy :)