Ads

Phantom Forest (Final Fantasy VI) Guitar Tab

Submitted: Jun 17, 2010 by laoise (Last updated: Mar 25, 2011)

4.833335
Average: 4.8 (6 votes)
Download | Listen
Game: Final Fantasy VI
Composer(s): Nobuo Uematsu
Style: Arrangement, Fingerstyle
Series: Final Fantasy

AutoScroll: Slow | Medium | Fast
The Mystic Forest - Final Fantasy 6
Arranged By Laoise Earle

BPM = 120


     E  E  Q    E  E     E  E  Q    E  E     E  E  Q    E  E     E  E  Q    E  E     E  E  Q    E  E   
E||-------------------|-------------------|-------------------|-------------------|-------------------|
B||-----1----------1--|-----1----------1--|-----1----------1--|-----1----------1--|-----1----------1--|
G||-----2----------2--|-----2----------2--|-----2----------2--|-----2----------2--|-----2----------2--|
D||--2-----2----2-----|--3-----3----3-----|--4-----4----4-----|--3-----3----3-----|--2-----2----2-----|
A||-------------------|-------------------|-------------------|-------------------|-------------------|
D||-------------------|-------------------|-------------------|-------------------|-------------------|


  E  E  Q    E  E     E  E  Q    E  E     E  E  Q    E  E     E  E  Q    Q       E  E  Q    Q     
-------------------|-------------------|-------------------|--------8----7----|--5-----3----1----|
-----1----------1--|-----1----------1--|-----1----------1--|------------------|------------------|
-----2----------2--|-----2----------2--|-----2----------2--|------------------|------------------|
--3-----3----3-----|--4-----4----4-----|--3-----3----3-----|-----2--7---------|-----3------------|
-------------------|-------------------|-------------------|--0---------------|--0-----0---------|
-------------------|-------------------|-------------------|------------------|------------------|


  E  E  H           E  E  Q    Q       E  E  H           E  E  H           E  E  H           E  E  H         
--0--------------|------------------|--0--------------|-----------------|-----------------|-----------------|
-----------------|--------1----3----|-----------------|-----------------|-----------------|-----------------|
--------2--------|--------2---------|--------2--------|--------2--------|--------2--------|--------2--------|
-----4-----------|-----3------------|-----2-----------|-----3-----------|-----4-----------|-----3-----------|
--0--------------|--0---------------|--0--------------|--0--------------|--0--------------|--0--------------|
-----------------|------------------|-----------------|-----------------|-----------------|-----------------|


  E  E  Q    Q       E  E  Q    Q       E  E  H           E  E  Q    Q       E  E  Q    Q       E  E  H         
--------8----7----|--5-----3----1----|--0--------------|------------------|--0----------1----|-----------------|
------------------|------------------|-----------------|--------1----3----|------------------|--3--------------|
--2---------------|------------------|--------2--------|--------2---------|--------3---------|--------3--------|
-----2--7---------|-----3------------|-----4-----------|-----3------------|-----3------------|-----2-----------|
--0---------------|--0-----0---------|--0--------------|--0---------------|--1---------------|--1--------------|
------------------|------------------|-----------------|------------------|------------------|-----------------|


  E  E  H           E  E  H           E  E  Q    Q       E  E  H           E  E  H           E  E  Q    Q     
-----------------|-----------------|--0----------1----|-----------------|-----------------|------------------|
-----------------|-----------------|------------------|--3--------------|-----------------|--3-----1---------|
--------3--------|-----0--3--------|--------3---------|--------3--------|--------3--------|-----0-------3----|
-----3-----------|-----------------|-----3------------|-----2-----------|-----3-----------|------------------|
--1--------------|--1--------------|--1---------------|--3--------------|--1--------------|--1---------------|
-----------------|-----------------|------------------|-----------------|-----------------|------------------|


  E  E  H           E  E  H           E  E  H           E  E  Q    E  E     E  E  H           E  E  H         
-----------------|-----------------|-----------------|-------------------|-----------------|-----------------|
-----------------|-----------------|-----------------|--1----------0-----|-----------------|-----------------|
--2-----2--------|--------2--------|--------2--------|--------2----------|--2-----2--------|--------2--------|
-----2-----------|-----3-----------|-----4-----------|-----3-------------|-----2-----------|-----3-----------|
--0--------------|--0--------------|--0--------------|--0----------2-----|--0--------------|--0--------------|
-----------------|-----------------|-----------------|----------------4--|-----------------|-----------------|


  E  E  H           E  E  H           Q    Q    Q       Q    Q    Q       H.              H.            
-----------------|-----------------|-----------------|-----------------|---------------|---------------|
-----------------|-----------------|-------0----1----|--3----1----0----|---------------|---------------|
--------2--------|--------2--------|--2--------------|-----------------|--2------------|--2------------|
-----4-----------|-----3-----------|--3--------------|--3--------------|--3------------|--3------------|
--0--------------|--0--------------|-----------------|-----------------|---------------|---------------|
-----------------|-----------------|-----------------|-----------------|---------------|---------------|


  Q    Q    Q        Q    Q    Q       H.              Q    Q    Q       H        Q       Q    Q    Q     
--5----7----8----|--10----8----7----|--5------------|--5----3----5----|--7--------8----|--3--------------|
-----------------|------------------|---------------|-----------------|----------------|-------0----1----|
--2--------------|------------------|--2------------|--2--------------|----------------|--2--------------|
--3--------------|---7--------------|--3------------|--3--------------|--5-------------|--2--------------|
-----------------|---8--------------|---------------|--0--------------|--7-------------|-----------------|
-----------------|------------------|---------------|-----------------|----------------|-----------------|


  H.              H.              Q    Q    Q       H.              Q    Q    Q       H.            
--5------------|--3------------|-----------------|---------------|-----------------|---------------|
---------------|---------------|-------0----1----|---------------|-----------------|---------------|
--4------------|--4------------|--2--------------|--0------------|------------0----|---------------|
--3------------|--3------------|--3--------------|---------------|-------4---------|--2------------|
--0------------|--0------------|-----------------|--0------------|--2--------------|--1------------|
---------------|---------------|-----------------|---------------|-----------------|---------------|


  Q    Q    Q       Q    Q    Q       H.              H.              Q    Q    Q       Q    Q    Q     
-----------------|-----------------|---------------|---------------|-----------------|-------0----1----|
-------0----1----|--3----1----0----|---------------|---------------|-------0----1----|--3--------------|
--2--------------|-----------------|--2------------|--2------------|--2--------------|-----------------|
--3--------------|--3--------------|--3------------|--3------------|--3--------------|--3--------------|
-----------------|-----------------|---------------|---------------|-----------------|-----------------|
-----------------|-----------------|---------------|---------------|-----------------|-----------------|


  H        Q       H        Q       H.              Q    Q    E  E     E  E  H           E  E  H         
--3--------6----|--5--------6----|--3------------|-------6----5-----|--3--------------|-----------------|
----------------|----------------|--1------------|---------------6--|-----------------|-----------------|
--3-------------|--3-------------|--2------------|--5---------------|--4-----0--------|--------0--------|
--5-------------|--5-------------|--3------------|--7---------------|-----0-----------|-----1-----------|
----------------|----------------|---------------|--8---------------|-----------------|-----------------|
----------------|----------------|---------------|------------------|--3--------------|--3--------------|


  E  E  H           E  E  H          
-----------------|-----------------||
-----------------|-----------------||
--------0--------|--------0--------||
-----2-----------|-----1-----------||
-----------------|-----------------||
--3--------------|--3--------------||




Duration Legend
---------------
W - whole
H - half
Q - quarter
E - 8th
S - 16th
T - 32nd
X - 64th
. - note dotted
|-n-|  - n-tuplets


Login or Register to remove this ad.