Ads

Phantom Forest (Final Fantasy VI) Guitar Tab

Submitted: Sep 26, 2010 by thiagobpaiva (Last updated: Mar 25, 2011)

5
Average: 5 (5 votes)
Download | Listen
Game: Final Fantasy VI
Composer(s): Nobuo Uematsu
Style: Arrangement, Fingerstyle
Series: Final Fantasy

Click here for a video example.

AutoScroll: Slow | Medium | Fast
                                                  The Phantom Forest                                                    
                                                   Final Fantasy VI
Composed by: NOBUO UEMATSU
Arranged by: Thiago Paiva

Bpm: 230

     Q    Q    Q    Q    Q    Q       Q    Q    Q    Q    Q    Q       Q    Q    Q    Q    Q    Q     
E||--------------------------------|--------------------------------|--------------------------------|
B||-------1-------------------1----|-------1-------------------1----|-------1-------------------1----|
G||--------------------------------|--------------------------------|--------------------------------|
D||--2---------2---------2---------|--3---------3---------3---------|--4---------4---------4---------|
A||--------------------------------|--------------------------------|--------------------------------|
E||--------------------------------|--------------------------------|--------------------------------|


                                                                                         
  Q    Q                        Q    Q    Q    Q       Q    Q    H        Q    Q       Q    Q    H        Q    Q     
----------------------------------------------------|-------------------------------|-------------------------------|
-------1---------------------------------------1----|------------1-------------1----|------------1-------------1----|
----------------------------------------------------|------------2------------------|------------2------------------|
--3-----------------------------3---------3---------|-------2-------------2---------|-------3-------------3---------|
----------------------------------------------------|--0----------------------------|--0----------------------------|
----------------------------------------------------|-------------------------------|-------------------------------|


  Q    Q    H        Q    Q       Q    Q    H        Q    Q       Q    Q    H        H         
-------------------------------|-------------------------------|------------------------------|
------------1-------------1----|------------1-------------1----|------------1--------0--------|
------------2------------------|------------2------------------|------------2-----------------|
-------4-------------4---------|-------3-------------3---------|-------2----------------------|
--0----------------------------|--0----------------------------|--0---------------------------|
-------------------------------|-------------------------------|------------------------------|


  Q    Q    H        H           E   E  Q    H        Q    Q       Q    Q    H        H         
------------------------------|---------------------------------|------------------------------|
------------1-----------------|---------1------------------1----|-------1----------------------|
--2---------0-----------------|---------2-----------------------|-------2----------------------|
-------3-------------3--------|--2s--4-------4--------4---------|--3------------------0--------|
--0---------------------------|--0------------------------------|--0---------3-----------------|
------------------------------|---------------------------------|------------------------------|


  Q    Q    H        Q    Q       Q    Q    H        Q    Q       Q    Q    H        Q    Q     
-------------------------------|-------------------------------|-------------------------------|
-------1------------------1----|-------1------------------1----|-------1------------------1----|
-------2-----------------------|-------2-----------------------|-------2-----------------------|
--2---------2--------2---------|--3---------3--------3---------|--4---------4--------4---------|
--0----------------------------|--0----------------------------|--0----------------------------|
-------------------------------|-------------------------------|-------------------------------|


  Q    Q    H        Q    Q       Q    Q    H        H           Q    Q    H        H         
-------------------------------|------------------------------|------------------------------|
-------1------------------1----|------------1--------0--------|------------1-----------------|
-------2-----------------------|------------2-----------------|--2---------0-----------------|
--3---------3--------3---------|-------2----------------------|-------3-------------3--------|
--0----------------------------|--0---------------------------|--0---------------------------|
-------------------------------|------------------------------|------------------------------|


  E   E  Q    H        Q    Q       Q    Q    H        H           W                E   Q       W                 
---------------------------------|------------------------------|----------------------------|-------------------|
---------1------------------1----|-------1----------------------|----------------------------|-------------------|
---------2-----------------------|-------2----------------------|----------------------------|-------------------|
--2s--4-------4--------4---------|--3------------------0--------|--2----------------2s--3----|--0----------------|
--0------------------------------|--0---------3-----------------|--1-------------------------|--1----------------|
---------------------------------|------------------------------|----------------------------|-------------------|


  Q    Q    W                   Q    Q    W                   Q    Q    H        H         
-----------------------------|-----------------------------|--0------------------1--------|
-----------------------------|-----------------------------|------------------------------|
------------3----------------|------------3----------------|------------3-----------------|
-------3---------------------|-------3---------------------|-------3----------------------|
--1--------------------------|--1--------------------------|--1---------------------------|
-----------------------------|-----------------------------|------------------------------|


  Q    Q    W                   Q    Q    W                   Q    Q    H        H         
-----------------------------|-----------------------------|------------------------------|
--3--------------------------|-----------------------------|--3---------1-----------------|
------------3----------------|------------3----------------|---------------------3--------|
-------3---------------------|-------3---------------------|-------3----------------------|
--1--------------------------|--1--------------------------|--1---------------------------|
-----------------------------|-----------------------------|------------------------------|


  Q    Q    H        Q    Q       Q    Q    H        Q    Q       Q    Q    H        Q    Q     
-------------------------------|-------------------------------|-------------------------------|
-------1------------------1----|-------1------------------1----|-------1------------------1----|
--2----------------------------|-------2-----------------------|-------2-----------------------|
--2---------2--------2---------|--3---------3--------3---------|--4---------4--------4---------|
--0----------------------------|--0----------------------------|--0----------------------------|
-------------------------------|-------------------------------|-------------------------------|


  Q    Q    H        Q    Q       Q    Q    H        Q    Q       Q    Q    H        Q    Q     
-------------------------------|-------------------------------|-------------------------------|
-------1------------------1----|-------1------------------1----|-------1------------------1----|
-------2-----------------------|-------2-----------------------|-------2-----------------------|
--3---------3--------3---------|--2---------2--------2---------|--3---------3--------3---------|
--0----------------------------|--0----------------------------|--0----------------------------|
-------------------------------|-------------------------------|-------------------------------|


  Q    Q    H        Q    Q       Q    Q    H        Q    Q       Q    Q    Q    Q    Q     
-------------------------------|-------------------------------|---------------------------|
-------1------------------1----|-------1------------------1----|------------0---------1----|
-------2-----------------------|-------2-----------------------|--2------------------------|
--4---------4--------4---------|--3---------3--------3---------|------------3--------------|
--0----------------------------|--0----------------------------|-------3---------3---------|
-------------------------------|-------------------------------|--1------------------------|


  Q    Q    Q    Q    Q.        Q    Q    W                   Q    Q    W                 
-----------------------------|-----------------------------|-----------------------------|
--3---------1---------0------|-----------------------------|-----------------------------|
-----------------------------|--2--------------------------|-----------------------------|
------------3----------------|------------3----------------|------------3----------------|
-------3---------3-----------|-------3---------------------|-------3---------------------|
--1--------------------------|--1--------------------------|--1--------------------------|


  Q    Q    H        H            Q     Q    H        H           Q    Q    W                 
--5---------7--------8--------|--10----------8--------7--------|--5--------------------------|
------------------------------|--------------------------------|------------6----------------|
-------5----------------------|--------------------------------|-------5---------------------|
--3---------------------------|--------10----------------------|--3--------------------------|
------------------------------|---8----------------------------|-----------------------------|
------------------------------|--------------------------------|-----------------------------|


  Q    Q    H        H           Q    Q    H        H           Q    Q    H        H           Q    Q    H         
--5---------3--------5--------|--7------------------8--------|---------------------0--------|--5------------------|
------------------------------|------------------------------|--8---------------------------|---------------------|
-------5----------------------|-------0----5-----------------|-------0----5-----------------|-------2----5--------|
--3---------------------------|------------------------------|------------------------------|---------------------|
------------------------------|--3---------------------------|------------------------------|--3------------------|
------------------------------|------------------------------|--8---------------------------|---------------------|


  Q    Q    W                   Q    Q    H         Q       W                   Q    Q     H        H         
--3--------------------------|---------------------------|-------------------|-------------------------------|
-------0----1----------------|------------0s--------1----|-------------------|-------------------------------|
-----------------------------|---------------------------|--0----------------|----------------------0--------|
-----------------------------|-------2-------------------|-------------------|-------2s----4-----------------|
--3--------------------------|--3------------------------|-------------------|--3----------------------------|
-----------------------------|---------------------------|-------------------|-------------------------------|


  W                   Q    Q    Q    Q    Q       Q    Q    Q    Q    Q       Q    Q    W                 
-------------------|---------------------------|---------------------------|-----------------------------|
-------------------|------------0---------1----|--3---------1---------0----|-----------------------------|
-------------------|--2------------------------|---------------------------|--2--------------------------|
--2----------------|------------3--------------|------------3--------------|------------3----------------|
-------------------|-------3---------3---------|-------3---------3---------|-------3---------------------|
-------------------|--1------------------------|--1------------------------|--1--------------------------|


  Q    Q    W                   Q    Q    H        H           Q    Q    H        H         
-----------------------------|------------------------------|------------------------------|
-----------------------------|------------0--------1--------|------------5--------6--------|
-----------------------------|--2---------------------------|--7---------7-----------------|
------------3----------------|--3---------3-----------------|-------7----------------------|
-------3---------------------|-------3----------------------|--5---------------------------|
--1--------------------------|--1---------------------------|------------------------------|


  Q    Q    H        H           Q    Q    H        H           W                   Q    Q    H        Q    Q     
---------------------6--------|--5------------------6--------|--3----------------|-------------------------------|
--8---------------------------|------------4-----------------|--1----------------|-------------------------------|
--0---------8-----------------|-------3----------------------|-------------------|------------3--------2---------|
-------8----------------------|--1---------------------------|--3----------------|------------3-------------3----|
--6---------------------------|------------------------------|-------------------|-------3-----------------------|
------------------------------|------------------------------|-------------------|--1----------------------------|


  Q    Q    H        Q    Q       Q    Q    H        Q    Q       Q    Q    H        Q    Q     
-------------------------------|-------------------------------|-------------------------------|
-------------------------------|-------------------------------|-------------------------------|
--0----3------------------3----|--0----3------------------3----|--0----3------------------3----|
--0---------0--------0---------|--1---------1--------1---------|--2---------2--------2---------|
-------------------------------|-------------------------------|-------------------------------|
--3----------------------------|--3----------------------------|--3----------------------------|


  Q    Q    H        Q    Q              
-------------------------------|-------||
-------------------------------|-------||
--0----3------------------3----|-------||
--1---------1--------1---------|-------||
-------------------------------|-------||
--3----------------------------|-------||




Duration Legend
---------------
W - whole
H - half
Q - quarter
E - 8th
S - 16th
T - 32nd
X - 64th
. - note dotted
|-n-|  - n-tuplets


Tablature Legend
----------------
L - tied note
x - dead note
g - grace note
(n) - ghost note
> - accentuded note
NH - natural harmonic
AH - artificial harmonic
TH - tapped harmonic
SH - semi harmonic
PH - pitch harmonic
h - hammer on
p - pull off
b - bend
br - bendRelease
pb - preBend
pbr - preBendRelease
brb - bendReleaseBend
\n/ - tremolo bar dip
\n - tremolo bar dive
-/n - tremolo bar Release up
/n\ - tremolo bar inverted dip
/n - tremolo bar return
-\n - tremolo bar Release down
S - shift slide
s - legato slide
/ -  slide into from below or out of upwards
\ -  slide into from above or out of downwards
~ - vibrato
W - wide vibrato
tr - trill
TP - tremolo picking
T - tapping
S - slap
P - pop
< - fade in
^ - brush up
v - brush down
Login or Register to remove this ad.

2 comments on Phantom Forest

Nice! A good version

5

Nice! A good version of this song. A bit rough/stretchy to play in a couple patches but not impossible.

I did catch one error in the melody, deep into the piece. It's in the second measure shown here:

   Q    Q    H        H           Q    Q    H        H           Q    Q    H
|--7------------------8--------|---------------------0--------|--5------------------|
|------------------------------|--8---------------------------|---------------------|
|-------0----5-----------------|-------0----5-----------------|------------5--------|
|------------------------------|------------------------------|-------2-------------|
|--3---------------------------|------------------------------|--3------------------|
|------------------------------|--8---------------------------|---------------------|

So the melody given in the second measure is G C E, when it should be G B C.

Here's a good way to do that:

   Q    Q    H        H           Q    Q    H        H           Q    Q    H
|--7------------------8--------|--3---------------------------|--5------------------|
|------------------------------|------------0--------1--------|---------------------|
|-------0----5-----------------|-------0----------------------|------------5--------|
|------------------------------|------------------------------|-------2-------------|
|--3---------------------------|--3---------------------------|--3------------------|
|------------------------------|------------------------------|---------------------|

This also has the benefit of allowing the left hand pinky to anchor-slide down to the 3rd fret for the second measure, and then anchor-slide again up to the 5th fret for the third measure.

This part is pretty rough and

5

This part is pretty rough and I haven't figured out exactly how to doctor it yet:

  Q    Q    H        H           Q    Q    H        H           W
---------------------6--------|--5------------------6--------|--3----------------|
--8---------------------------|------------4-----------------|--1----------------|
--0---------8-----------------|-------3----------------------|-------------------|
-------8----------------------|--1---------------------------|--3----------------|
--6---------------------------|------------------------------|-------------------|
------------------------------|------------------------------|-------------------|