Overture (Final Fantasy VI) Bass/Guitar Tab

Submitted: Aug 23, 2009 by Asa (Last updated: Apr 05, 2010)

5
Average: 5 (1 vote)
Download | Listen
Game: Final Fantasy VI
Composer(s): Nobuo Uematsu
Style: 2 or more instruments, Transcription
Series: Final Fantasy

AutoScroll: Slow | Medium | Fast
Overture
Final Fantasy VI
FF6 OSV Disc 2 - Track 7
Nobuo Uematsu

Tabbed by Aj Franks
08/22/09



Intro
e|----7---7--7--7--7---7---7---9---|---10---10--10--10--10---10---10---12----|
B|----7---7--7--7--7---7---7---8---|---10---10--10--10--10---10---10---14----|
G|----7---7--7--7--7---7---7---9---|---11---11--11--11--11---11---11---14----|
D|---------------------------------|-----------------------------------------|
A|---------------------------------|-----------------------------------------|
E|---------------------------------|-----------------------------------------|


e|----14------17--15-14-12------15--14-12--|
B|--------15----------------14-------------|
G|-----------------------------------------|
D|-----------------------------------------|
A|-----------------------------------------|
E|-----------------------------------------|


e|----10-9-10-12-14-12-10-9--|-(7)---------------|--7-5-7-9-10-9-7-5--|-(3)---------------|
B|---------------------------|-------------------|--------------------|-------------------|
G|---------------------------|--------6-7-6------|--------------------|-------------------|
D|---------------------------|--9-8-9-------9-7--|-(5)----------------|--------4-5-4-2-0--|
A|---------------------------|-------------------|--------------------|--7-6-7------------|
E|---------------------------|-------------------|--------------------|-------------------|


      .   .   .                                             .
e|----2---6---9----|------------------9-------|--------.----10---|------------------10------|
B|----2---7---11---|----------11------11------|---.----12---12---|----------12------12------|
G|-----------------|--11------11--------------|---11---11--------|--11------11--------------|
D|-----------------|--11----------------------|---12-------------|--12----------------------|
A|-----------------|--------------------------|------------------|--------------------------|
E|-----------------|--------------------------|------------------|--------------------------|

           .    .                                        .    .
e|----.----9----12---|----------9-------12------|---.----10---14---|----------10------14---|
B|----10---10---14---|--10------10------14------|---10---10---15---|--10------10------15---|
G|----9--------------|--9-----------------------|---11-------------|--11-------------------|
D|-------------------|--------------------------|------------------|-----------------------|
A|-------------------|--------------------------|------------------|-----------------------|
E|-------------------|--------------------------|------------------|-----------------------|


e|----15----|----14----|
B|----17----|----17----|
G|----18----|----18----|
D|----14----|----------|
A|-----x----|----------|
E|----14----|----------|



Riff 1 (repeat 2x)
e||----10---------0-9----|--10---------0-9----|--10---------0-9----|--10---------0-9----|
B||---------7---8--------|-------7---8--------|-------7---8--------|-------7---8--------|
G||*----------7-------6--|---------7-------6--|---------7-------6--|---------7-------6--|
D||*------9--------------|-----9--------------|-----9--------------|-----9--------------|
A||----------------------|--------------------|--------------------|--------------------|
E||----------------------|--------------------|--------------------|--------------------|


e|----7-------3---5-0--|--7-------3---9-0--|--7-------3---5-0--|--7-------3---12-(0)---||
B|--------7-0---2------|------7-0---2------|------7-0---2------|------7-0---2----------||
G|------0--------------|----0--------------|----0--------------|----0-----------------*||
D|---------------------|-------------------|-------------------|----------------------*||
A|---------------------|-------------------|-------------------|-----------------------||
E|---------------------|-------------------|-------------------|-----------------------||



Bridge
e|----0-----0-----0-----0----|---------------------------|----0---0---10----9--|--8--------|
B|----12----12----12----13---|----12----12----12----10---|----11--12--8-----8--|--8--------|
G|----12----12----12----14---|----11----11----11----11---|----12--12--9-----9--|--9--------|
D|---------------------------|----13----13----13----13---|---------------------|-----------|
A|---------------------------|---------------------------|---------------------|-----------|
E|---------------------------|---------------------------|---------------------|-----------|

(Bass)
G|---------------------------|---------------------------|---------------------|-----------|
D|---------------------------|----------------1-----4----|----2-------0--------|-----------|
A|----------------------0----|----2-----2--4-------------|---------------------|--3--1-----|
E|----0-----0--2--3----------|---------------------------|---------------------|--------3--|


Bridge (Con't)
e|----0-----0-----10------9--|--8---------|----7----19----|---10-10-10-10---|---12-12-12-12---|
B|----11----12----8-------8--|--8---------|----7----19----|---12-12-12-12---|---14-14-14-14---|
G|----12----12----9-------9--|--9---------|----10---17----|---13-13-13-13---|---12-12-12-12---|
D|---------------------------|------------|---------------|-----------------|-----------------|
A|---------------------------|------------|---------------|-----------------|-----------------|
E|---------------------------|------------|---------------|-----------------|-----------------|

(Bass Con't)
G|---------------------------|------------|---------------|-----------------|-----------------|
D|---------------------------|------------|---------------|-----------------|-----------------|
A|---------------------------|--0----1----|---(2)--(2)----|---2--2--2--2----|---1--1--1--1----|
E|----0-----------3----------|------------|---------------|-----------------|-----------------|



Strings
e|----2---------------|--3----10----9----7----|------------------|-------10----9----7-----|
B|----3---------------|--3--------------------|--7---------------|--8---------------------|
G|----4---------------|--4--------------------|--7---------------|--7---------------------|
D|--------------------|-----------------------|--9---------------|--9---------------------|
A|--------------------|-----------------------|------------------|------------------------|
E|--------------------|-----------------------|------------------|------------------------|

Choir
G|--------------------|-----------------------|------------------|---------------------0--|
D|----4--------0---4--|--3--------------------|--4--------0---4--|--3---------------4-----|
A|--------------------|-----------------------|------------------|------------------------|
E|--------------------|-----------------------|------------------|------------------------|


Strings (con't)
e|----5---------------|--5---------------|--7--------7--------|--7----------------|
B|----7---------------|--7---------------|--8--------7--------|--8----------------|
G|----7---------------|--6---------------|--------------------|-------------------|
D|--------------------|------------------|--9--------9--------|--9----------------|
A|--------------------|------------------|--------------------|-------------------|
E|--------------------|------------------|--------------------|-------------------|

Choir (con't)
G|----2------------1--|--2-------2---2---|--4-----------------|-------------------|
D|--------0----4------|------------------|------0----0---4----|--2-------------0--|
A|--------------------|------------------|--------------------|---------2---4-----|
E|--------------------|------------------|--------------------|-------------------|


Strings (con't)
e|----7---------------|--5-------6-------|--7-----------------|
B|----8---------------|--5-------5-------|--7-----------------|
G|--------------------|--6-------6-------|--7-----------------|
D|----9---------------|------------------|--------------------|
A|--------------------|------------------|--------------------|
E|--------------------|------------------|--------------------|

Choir (con't)
G|--------------------|--2---------------|--------------------|
D|----2---------------|------------------|--------------------|
A|--------------------|----------4-------|--2-----------------|
E|--------------------|------------------|--------------------|



Bridge 2                          i.                           ii.
e||--------------0-2-0---0------|----------------------------|-------------------------||
B||----0-2-3-2-3-------3---3-2--|--3-2-0-2-0---0-------------|--3-2-0-2-0---0-----0----||
G||*----------------------------|------------2-----1-2-1----*|------------2-----2-----*||
D||*----------------------------|----------------4-------4--*|----------------4-------*||
A||-----------------------------|----------------------------|-------------------------||
E||-----------------------------|----------------------------|-------------------------||



Horns
e|-----------------------2--|--0-----------0---2---5--|--4------------4----9--|--7-----6----|
B|----2------0---2---3------|------2---3--------------|------6--6--7----------|-------------|
G|--------3-----------------|-------------------------|-----------------------|-------------|
D|--------------------------|-------------------------|-----------------------|-------------|
A|--------------------------|-------------------------|-----------------------|-------------|
E|--------------------------|-------------------------|-----------------------|-------------|


Repeat Bridge 2 then:


e|------------------|------------------|---------|
B|----3--------3----|----3--------3----|---------|
G|----4--------4----|----4--------4----|----4----|
D|------------------|------------------|----4----|
A|------------------|------------------|---------|
E|------------------|------------------|---------|



Outro
e|-------------------------------------------|------------------------------------------|
B|----12-11-12--12-11-12--12-11-12-14-15-12--|------------------------------------------|
G|*------------------------------------------|--14-12-11--11-12-----11-----------------*|
D|*------------------------------------------|------------------11------14-12-11-12----*|
A|-------------------------------------------|--------------------------------------14--|
E|-------------------------------------------|------------------------------------------|

    i.
e|-------------------------------------------|------------------------------------------||
B|-------------------------------------------|------------------12--12-14-15-14-12------||
G|-------------------11--11-12-14--12-11-----|-----11-12--12-14--------------------11--*||
D|------11-12--12-14---------------------14--|--14-------------------------------------*||
A|---14--------------------------------------|------------------------------------------||
E|-------------------------------------------|------------------------------------------||
Fade out
Login or Register to remove this ad.

1 comment on Overture

holy crap

5

this is epic. why hasnt this been rated???