Ads

The Mines of Narshe (Final Fantasy VI) Guitar Tab

Submitted: Jan 24, 2013 by thedstring

5
Average: 5 (2 votes)
Download | Listen
Game: Final Fantasy VI
Composer(s): Nobuo Uematsu
Style: Arrangement, Fingerstyle
Series: Final Fantasy

AutoScroll: Slow | Medium | Fast
The Mines of Narshe
Final Fantasy VI

Composed by Nobuo Uematsu
Arranged by Nate Brooks (thedstring)

Standard tuning
Capo fret 7

You can either repeat the easy version or the hard version, or do as I prefer,
play the easy THEN the hard version.


Opening

E|--------0------------|-----------------------|--1-----------0---------|------------------------|
B|---------------------|--3--------------------|--------3---------------|------------------------|
G|-----3---------------|--3--------------------|-----3------------------|------------------------|
D|--2------------------|--5--------------------|--2---------------------|------------------------|
A|---------------------|-----------------------|------------------------|------------------------|
E|--0------------------|-----------------------|--0---------------------|------------------------|


--------0--------------|-----------------------|--5-----------3---------|-----------------------|
-----------------------|--3--------------------|--------3---------------|-----------------------|
-----3-----------------|--3--------------------|-----3------------------|-----------------------|
--2--------------------|--5--------------------|--2---------------------|-----------------------|
-----------------------|-----------------------|------------------------|-----------------------|
--0--------------------|-----------------------|--0---------------------|-----------------------|


Here's the harder version, repeat if this is your skill level:
Tap the strings with your finger nails at the X's to mimic the rhythm

||--------------------------|----------------|---------------------------|----------------------|
||-----------------3--------|----------------|---------------------------|----------------------|
||*-3--------------3--------|----------------|--3--------------0---------|----------------------|
||*-2--------0-----5--------|--X-------X-----|--2--------0-----2---------|--X-------X-----------|
||--------3-----------------|--X-------X-----|--------3--------5---------|--X-------X-----------|
||-----------------0--------|--X-------X-----|-----------------0---------|--X-------X-----------|


---------------------------|----------------|---------------------------|-----------------------|
-----------------3---------|----------------|---------------------------|-----------------------|
--3--------------3---------|----------------|--3--------------0---------|-----------------------|
--2--------0-----5---------|--X-------X-----|--2--------0-----2---------|--X-------X------------|
--------3------------------|--X-------X-----|--------3--------5---------|--X-------X------------|
-----------------0---------|--X-------X-----|-----------------0---------|--X-------X------------|


---------------------------|----------------|---------------------------|-----------------------|
--1--------------4---------|----------------|--3--------------1---------|-----------------------|
--1--------------5---------|----------------|--3--------------1---------|-----------------------|
--------1--2-----3---------|--X-------X-----|--------1--2-----3---------|--X-------X------------|
---------------------------|--X-------X-----|-----------------3---------|--X-------X------------|
--1------------------------|--X-------X-----|--1------------------------|--X-------X------------|


---------------------------|----------------|---------------------------|-----------------------|
--1--------------4---------|----------------|--3--------------1---------|-----------------------|
--1--------------5---------|----------------|--1--------------1---------|-----------------------|
--------1--2-----3---------|--X-------X-----|--------1--2-----3---------|--X-------X------------|
---------------------------|--X-------X-----|-----------------3---------|--X-------X------------|
--1------------------------|--X-------X-----|--1------------------------|--X-------X------------|


--0-----------------3-------------------------------|-----------------------------------|
--0-----------------3-----2-----------0-------------|-----------------------------------|
--------0-----2-----------------2-----------0-------|--2--------------------------------|
-----0-----0-----0-----0-----0-----0-----0-----0----|-----0--3-------------X------------|
----------------------------------------------------|----------------------X------------|
--0-------------------------------------------------|----------------------X------------|


----------------------------|----------------------|
----------------------------|----------------------|
--3----------0-----0-3---0--|----------------------|
--2-----0----2-----0-3---0--|--X-------X-----------|
------3------5--------------|--X-------X-----------|
-------------0--------------|--X-------X-----------|


--0-----------------3-------------------------------|-----------------------------------|
--0-----------------3-----2-----------0-------------|-----------------------------------|
--------0-----2-----------------2-----------0-------|--2--------------------------------|
-----0-----0-----0-----0-----0-----0-----0-----0----|-----0--3-------------X------------|
----------------------------------------------------|----------------------X------------|
--0-------------------------------------------------|----------------------X------------|


-------------------0------|------------------------|
-------------------0-3-0--|--2----0----------------|
--3----------0-------3-0--|--2----0----------------|
--2-----0----2------------|------------X-----------|
------3------5------------|------------X-----------|
-------------0------------|------------X-----------|


---------------------------|---------------|--3-----------------|---------------------|
--1---------4-4------------|--1------------|--4---------1-------|---------------------|
--1---------5------4-------|--------1--3---|--1---------1-------|---------------------|
------1-2---3--------------|-----5---------|------1-2---3-------|--X--------X---------|
---------------------------|---------------|------------3-------|--X--------X---------|
--1------------------------|---------------|--1-----------------|--X--------X---------|


--6-------5-4-3-----|----------------------|--1-------0---------|----------------------|
--1-----------1-----|----------------------|------------4-3-----|----------------------|
--1-----------------|----------------------|--1-----------------|----------------------|
------1-------3-----|---X---------X--------|------1-2-----------|--X--------X----------|
--------------------|---X---------X--------|--------------3-----|--X--------X----------|
--1-----------------|---X---------X--------|--1-----------------|--X--------X----------|


------------------------|------------------|-------------------|----------------------||
------------3-----------|------------------|-------------------|----------------------||
--3---------3-----------|------------------|--3---------0------|---------------------*||
--2-----0---5-----------|--X--------X------|--2-----0---2------|--X--------X---------*||
------3-----------------|--X--------X------|------3-----5------|--X--------X----------||
------------0-----------|--X--------X------|------------0------|--X--------X----------||





Here's the easy version, repeat if this is your skill level:

||----------------------|-----------------------|------------------------|----------------------|
||-----------------3----|-----------------------|------------------------|----------------------|
||*-3--------------3----|-----------------------|--3--------------0------|----------------------|
||*-2--------0-----5----|-----------------------|--2--------0-----2------|----------------------|
||--------3-------------|-----------------------|--------3--------5------|----------------------|
||-----------------0----|-----------------------|-----------------0------|----------------------|


-----------------------|-----------------------|------------------------|-----------------------|
-----------------3-----|-----------------------|------------------------|-----------------------|
--3--------------3-----|-----------------------|--3--------------0------|-----------------------|
--2--------0-----5-----|-----------------------|--2--------0-----2------|-----------------------|
--------3--------------|-----------------------|--------3--------5------|-----------------------|
-----------------0-----|-----------------------|-----------------0------|-----------------------|


-----------------------|-----------------------|------------------------|-----------------------|
--1--------------4-----|-----------------------|--3--------------1------|-----------------------|
--1--------------5-----|-----------------------|--3--------------1------|-----------------------|
--------1--2-----3-----|-----------------------|--------1--2-----3------|-----------------------|
-----------------------|-----------------------|-----------------3------|-----------------------|
--1--------------------|-----------------------|--1---------------------|-----------------------|


-----------------------|-----------------------|------------------------|-----------------------|
--1--------------4-----|-----------------------|--3--------------1------|-----------------------|
--1--------------5-----|-----------------------|--1--------------1------|-----------------------|
--------1--2-----3-----|-----------------------|--------1--2-----3------|-----------------------|
-----------------------|-----------------------|-----------------3------|-----------------------|
--1--------------------|-----------------------|--1---------------------|-----------------------|


-----------------------|-----------------------|------------------------|-----------------------|
-----------------3-----|-----------------------|------------------------|-----------------------|
--3--------------3-----|-----------------------|--3--------------0------|-----------------------|
--2--------0-----5-----|-----------------------|--2--------0-----2------|-----------------------|
--------3--------------|-----------------------|--------3--------5------|-----------------------|
-----------------0-----|-----------------------|-----------------0------|-----------------------|


-----------------------|-----------------------|------------------------|-----------------------|
-----------------3-----|-----------------------|------------------------|-----------------------|
--3--------------3-----|-----------------------|--3--------------0------|-----------------------|
--2--------0-----5-----|-----------------------|--2--------0-----2------|-----------------------|
--------3--------------|-----------------------|--------3--------5------|-----------------------|
-----------------0-----|-----------------------|-----------------0------|-----------------------|


--------------------------|--------------------|--3---------------------|-----------------------|
--1--------------4--4-----|--1-----------------|--4--------------1------|-----------------------|
--1--------------5------4-|----------1---3-----|--1--------------1------|-----------------------|
--------1--2-----3--------|------5-------------|--------1--2-----3------|-----------------------|
--------------------------|--------------------|-----------------3------|-----------------------|
--1--------------1--------|--------------------|--1---------------------|-----------------------|


--6-----------5--4--3-----|-----------------|--1-----------0------------|-----------------------|
--1-----------------1-----|-----------------|-----------------4--3------|-----------------------|
--1-----------------------|-----------------|--1------------------------|-----------------------|
--------1-----------3-----|-----------------|--------1--2---------------|-----------------------|
--------------------------|-----------------|--------------------3------|-----------------------|
--1-----------------1-----|-----------------|--1------------------------|-----------------------|


-------------------------|------------------|---------------------------|----------------------||
------------3------------|------------------|---------------------------|----------------------||
--3---------3------------|------------------|--3---------0--------------|---------------------*||
--2-----0---5------------|------------------|--2-----0---2--------------|---------------------*||
------3------------------|------------------|------3-----5--------------|----------------------||
------------0------------|------------------|------------0--------------|----------------------||
Login or Register to remove this ad.